  0
SECTION
  2
HEADER
  9
$ACADVER
  1
AC1009
  9
$INSBASE
 10
3735.0992878415818268
 20
121.6299068135523953
 30
0.0
  9
$EXTMIN
 10
3731.7916627459289884
 20
118.5028322521919932
 30
-0.0015258207003583
  9
$EXTMAX
 10
3738.3358659162618096
 20
124.7614183220900941
 30
0.0000000349246037
  9
$LIMMIN
 10
0.0
 20
0.0
  9
$LIMMAX
 10
11.6929133858000007
 20
8.2677165353999982
  9
$ORTHOMODE
 70
     0
  9
$REGENMODE
 70
     1
  9
$FILLMODE
 70
     1
  9
$QTEXTMODE
 70
     0
  9
$MIRRTEXT
 70
     0
  9
$DRAGMODE
 70
     2
  9
$LTSCALE
 40
0.6431102362
  9
$OSMODE
 70
  4095
  9
$ATTMODE
 70
     1
  9
$TEXTSIZE
 40
0.2
  9
$TRACEWID
 40
0.05
  9
$TEXTSTYLE
  7
STANDARD
  9
$CLAYER
  8
0
  9
$CELTYPE
  6
BYLAYER
  9
$CECOLOR
 62
   256
  9
$DIMSCALE
 40
1.0
  9
$DIMASZ
 40
0.1875
  9
$DIMEXO
 40
0.0625
  9
$DIMDLI
 40
0.4443307087
  9
$DIMRND
 40
0.0
  9
$DIMDLE
 40
0.0
  9
$DIMEXE
 40
0.125
  9
$DIMTP
 40
0.01
  9
$DIMTM
 40
0.01
  9
$DIMTXT
 40
2.0
  9
$DIMCEN
 40
0.1052362205
  9
$DIMTSZ
 40
0.0
  9
$DIMTOL
 70
     1
  9
$DIMLIM
 70
     0
  9
$DIMTIH
 70
     1
  9
$DIMTOH
 70
     1
  9
$DIMSE1
 70
     0
  9
$DIMSE2
 70
     0
  9
$DIMTAD
 70
     0
  9
$DIMZIN
 70
     0
  9
$DIMBLK
  1

  9
$DIMASO
 70
     1
  9
$DIMSHO
 70
     1
  9
$DIMPOST
  1
\X
  9
$DIMAPOST
  1

  9
$DIMALT
 70
     1
  9
$DIMALTD
 70
     2
  9
$DIMALTF
 40
25.3999999999999986
  9
$DIMLFAC
 40
1.0
  9
$DIMTOFL
 70
     0
  9
$DIMTVP
 40
0.0
  9
$DIMTIX
 70
     0
  9
$DIMSOXD
 70
     0
  9
$DIMSAH
 70
     0
  9
$DIMBLK1
  1

  9
$DIMBLK2
  1

  9
$DIMSTYLE
  2
STANDARD
  9
$DIMCLRD
 70
     0
  9
$DIMCLRE
 70
     0
  9
$DIMCLRT
 70
     0
  9
$DIMTFAC
 40
1.0
  9
$DIMGAP
 40
0.09
  9
$LUNITS
 70
     2
  9
$LUPREC
 70
     4
  9
$SKETCHINC
 40
0.1
  9
$FILLETRAD
 40
0.0
  9
$AUNITS
 70
     0
  9
$AUPREC
 70
     0
  9
$MENU
  1
.
  9
$ELEVATION
 40
0.0
  9
$PELEVATION
 40
0.0
  9
$THICKNESS
 40
0.0
  9
$LIMCHECK
 70
     0
  9
$BLIPMODE
 70
     0
  9
$CHAMFERA
 40
0.0
  9
$CHAMFERB
 40
0.0
  9
$SKPOLY
 70
     0
  9
$TDCREATE
 40
2458060.468368056230247
  9
$TDUPDATE
 40
2460056.4867129628546536
  9
$TDINDWG
 40
0.464034838
  9
$TDUSRTIMER
 40
0.464034838
  9
$USRTIMER
 70
     1
  9
$ANGBASE
 50
0.0
  9
$ANGDIR
 70
     0
  9
$PDMODE
 70
     0
  9
$PDSIZE
 40
0.3125
  9
$PLINEWID
 40
0.0
  9
$COORDS
 70
     1
  9
$SPLFRAME
 70
     0
  9
$SPLINETYPE
 70
     6
  9
$SPLINESEGS
 70
     8
  9
$ATTDIA
 70
     1
  9
$ATTREQ
 70
     1
  9
$HANDLING
 70
     1
  9
$HANDSEED
  5
119A2
  9
$SURFTAB1
 70
     6
  9
$SURFTAB2
 70
     6
  9
$SURFTYPE
 70
     6
  9
$SURFU
 70
     6
  9
$SURFV
 70
     6
  9
$UCSNAME
  2

  9
$UCSORG
 10
0.0
 20
0.0
 30
0.0
  9
$UCSXDIR
 10
1.0
 20
0.0
 30
0.0
  9
$UCSYDIR
 10
0.0
 20
1.0
 30
0.0
  9
$PUCSNAME
  2

  9
$PUCSORG
 10
0.0
 20
0.0
 30
0.0
  9
$PUCSXDIR
 10
1.0
 20
0.0
 30
0.0
  9
$PUCSYDIR
 10
0.0
 20
1.0
 30
0.0
  9
$USERI1
 70
     0
  9
$USERI2
 70
     0
  9
$USERI3
 70
     0
  9
$USERI4
 70
     0
  9
$USERI5
 70
     0
  9
$USERR1
 40
0.0
  9
$USERR2
 40
0.0
  9
$USERR3
 40
0.0
  9
$USERR4
 40
0.0
  9
$USERR5
 40
0.0
  9
$WORLDVIEW
 70
     1
  9
$SHADEDGE
 70
     3
  9
$SHADEDIF
 70
    70
  9
$TILEMODE
 70
     1
  9
$MAXACTVP
 70
    64
  9
$PLIMCHECK
 70
     0
  9
$PEXTMIN
 10
1.0000000000000000E+20
 20
1.0000000000000000E+20
 30
1.0000000000000000E+20
  9
$PEXTMAX
 10
-1.0000000000000000E+20
 20
-1.0000000000000000E+20
 30
-1.0000000000000000E+20
  9
$PLIMMIN
 10
0.0
 20
0.0
  9
$PLIMMAX
 10
12.0
 20
9.0
  9
$UNITMODE
 70
     0
  9
$VISRETAIN
 70
     1
  9
$PLINEGEN
 70
     0
  9
$PSLTSCALE
 70
     1
  0
ENDSEC
  0
SECTION
  2
TABLES
  0
TABLE
  2
VPORT
 70
     1
  0
VPORT
  2
*ACTIVE
 70
     0
 10
0.0
 20
0.0
 11
1.0
 21
1.0
 12
815.3083932373457401
 22
34.3574747134105678
 13
0.0
 23
0.0
 14
1.0
 24
1.0
 15
0.0
 25
0.0
 16
0.0
 26
0.0
 36
215.6888699471975031
 17
2919.75537109375
 27
87.2746505737304688
 37
0.0
 40
6.3149697281854884
 41
2.8436090225563908
 42
50.0
 43
0.0
 44
0.0
 50
0.0
 51
0.0
 71
     0
 72
   100
 73
     1
 74
     1
 75
     0
 76
     0
 77
     0
 78
     0
  0
ENDTAB
  0
TABLE
  2
LTYPE
 70
     2
  0
LTYPE
  2
CONTINUOUS
 70
     0
  3
Solid line
 72
    65
 73
     0
 40
0.0
  0
LTYPE
  2
PHANTOM2
 70
     0
  3
___ _ _ ___ _ _ ___ _ _ ___ _ _
 72
    65
 73
     6
 40
1.25
 49
0.625
 49
-0.125
 49
0.125
 49
-0.125
 49
0.125
 49
-0.125
  0
ENDTAB
  0
TABLE
  2
LAYER
 70
     2
  0
LAYER
  2
0
 70
     0
 62
   255
  6
CONTINUOUS
  0
LAYER
  2
DEFPOINTS
 70
     0
 62
     7
  6
CONTINUOUS
  0
ENDTAB
  0
TABLE
  2
STYLE
 70
     1
  0
STYLE
  2
STANDARD
 70
     0
 40
0.0
 41
0.8
 50
0.0
 71
     0
 42
0.2
  3
txt
  4

  0
ENDTAB
  0
TABLE
  2
VIEW
 70
     0
  0
ENDTAB
  0
TABLE
  2
UCS
 70
     0
  0
ENDTAB
  0
TABLE
  2
APPID
 70
     9
  0
APPID
  2
ACAD
 70
     0
  0
APPID
  2
ACAD_MLEADERVER
 70
     0
  0
APPID
  2
ACAD_EXEMPT_FROM_CAD_STANDARDS
 70
     0
  0
APPID
  2
ACAD_NAV_VCDISPLAY
 70
     0
  0
APPID
  2
ACAECLAYERSTANDARD
 70
     0
  0
APPID
  2
ACCMTRANSPARENCY
 70
     0
  0
APPID
  2
ACAD_DSTYLE_DIMJAG
 70
     0
  0
APPID
  2
ACAD_DSTYLE_DIMTALN
 70
     0
  0
APPID
  2
ACDBATTR
 70
     0
  0
ENDTAB
  0
TABLE
  2
DIMSTYLE
 70
     1
  0
DIMSTYLE
  2
STANDARD
 70
     0
  3

  4

  5

  6

  7

 40
1.0
 41
0.1875
 42
0.0625
 43
0.38
 44
0.125
 45
0.0
 46
0.0
 47
0.01
 48
0.01
140
0.15625
141
0.09
142
0.0
143
25.3999999999999986
144
1.0
145
0.0
146
1.0
147
0.09
 71
     1
 72
     0
 73
     1
 74
     1
 75
     0
 76
     0
 77
     0
 78
     4
170
     0
171
     2
172
     0
173
     0
174
     0
175
     0
176
     0
177
     0
178
     0
  0
ENDTAB
  0
ENDSEC
  0
SECTION
  2
BLOCKS
  0
BLOCK
  8
0
  2
$MODEL_SPACE
 70
     0
 10
0.0
 20
0.0
 30
0.0
  3
$MODEL_SPACE
  1

  0
ENDBLK
  5
21
  8
0
  0
BLOCK
 67
     1
  8
0
  2
$PAPER_SPACE
 70
     0
 10
0.0
 20
0.0
 30
0.0
  3
$PAPER_SPACE
  1

  0
ENDBLK
  5
1D
 67
     1
  8
0
  0
BLOCK
  8
0
  2
_FILLED
 70
     0
 10
0.0
 20
0.0
 30
0.0
  3
_FILLED
  1

  0
SOLID
  5
5A61
  8
0
  6
BYBLOCK
 62
     0
 10
0.0
 20
0.0
 30
0.0
 11
-1.0
 21
0.1666666667
 31
0.0
 12
-1.0
 22
-0.1666666667
 32
0.0
 13
-1.0
 23
-0.1666666667
 33
0.0
  0
ENDBLK
  5
5A62
  8
0
  6
BYBLOCK
 62
     0
  0
BLOCK
  8
0
  2
A$CDDB7E68A
 70
     0
 10
0.0
 20
0.0
 30
0.0
  3
A$CDDB7E68A
  1

  0
LINE
  5
115A9
  8
0
 10
5.7274203505787344
 20
11.9093004908488798
 30
0.0
 11
5.7274203505787344
 21
5.6603246586488796
 31
0.0
  0
LINE
  5
115AA
  8
0
 10
4.7374203505787342
 20
11.9093004908488798
 30
0.0
 11
5.7274203505787344
 21
11.9093004908488798
 31
0.0
  0
LINE
  5
115AB
  8
0
 10
4.6674203505787331
 20
11.8393004908488795
 30
0.0
 11
4.6674203505787331
 21
5.7303246586488834
 31
0.0
  0
LINE
  5
115AC
  8
0
 10
4.6374203505787337
 20
9.7843004908488815
 30
0.0
 11
4.6574203505787342
 21
9.7843004908488815
 31
0.0
  0
LINE
  5
115AD
  8
0
 10
3.4744203505787339
 20
9.5713004908488806
 30
0.0
 11
4.6074203505787352
 21
9.5713004908488806
 31
0.0
  0
ARC
  5
115AE
  8
0
 10
4.7374203505787369
 20
11.8393004908488795
 30
0.0
 40
0.07
 50
90.0000000000029559
 51
179.9999999999978115
  0
LINE
  5
115AF
  8
0
 10
4.6074203505787352
 20
9.7543004908488804
 30
0.0
 11
4.6074203505787352
 21
7.8153246586488816
 31
0.0
  0
ARC
  5
115B0
  8
0
 10
4.6374203505787381
 20
9.7543004908488804
 30
0.0
 40
0.03
 50
90.0000000000068212
 51
179.9999999999982947
  0
ARC
  5
115B1
  8
0
 10
4.6574203505787342
 20
9.7743004908488782
 30
0.0
 40
0.01
 50
0.0000000000101778
 51
90.0
  0
LINE
  5
115B2
  8
0
 10
3.4644203505787341
 20
9.5613004908488808
 30
0.0
 11
3.4644203505787341
 21
8.0083246586488812
 31
0.0
  0
ARC
  5
115B3
  8
0
 10
3.474420350578737
 20
9.5613004908488808
 30
0.0
 40
0.01
 50
90.0000000000203642
 51
180.0
  0
LINE
  5
115B4
  8
0
 10
3.4444203505787341
 20
9.4764780600488798
 30
0.0
 11
3.4444203505787341
 21
8.0931470894488822
 31
0.0
  0
LINE
  5
115B5
  8
0
 10
3.4644203505787341
 20
9.1393004908488802
 30
0.0
 11
3.4444203505787341
 21
9.1393004908488802
 31
0.0
  0
LINE
  5
115B6
  8
0
 10
3.43435926443588
 20
9.4864778734712978
 30
0.0
 11
2.2622920075930231
 21
9.4793180330960105
 31
0.0
  0
ARC
  5
115B7
  8
0
 10
3.434420350578733
 20
9.476478060048878
 30
0.0
 40
0.01
 50
0.0000000000152667
 51
90.3499999939642464
  0
LINE
  5
115B8
  8
0
 10
2.2424141798787338
 20
9.4593184062511764
 30
0.0
 11
2.2424141798787338
 21
5.7091699456488803
 31
0.0
  0
ARC
  5
115B9
  8
0
 10
2.2624141798787321
 20
9.4593184062511781
 30
0.0
 40
0.02
 50
90.3499999939694334
 51
180.0000000000050022
  0
LINE
  5
115BA
  8
0
 10
2.2044203722145528
 20
8.9696939076845918
 30
0.0
 11
2.2044203722145528
 21
6.2642277620185087
 31
0.0
  0
LINE
  5
115BB
  8
0
 10
4.7374203505787342
 20
5.6603246586488796
 30
0.0
 11
5.7274203505787344
 21
5.6603246586488796
 31
0.0
  0
LINE
  5
115BC
  8
0
 10
4.6374203505787337
 20
7.7853246586488813
 30
0.0
 11
4.6574203505787342
 21
7.7853246586488813
 31
0.0
  0
LINE
  5
115BD
  8
0
 10
3.4744203505787339
 20
7.9983246586488814
 30
0.0
 11
4.6074203505787352
 21
7.9983246586488814
 31
0.0
  0
ARC
  5
115BE
  8
0
 10
4.7374203505787369
 20
5.7303246586488834
 30
0.0
 40
0.07
 50
180.0000000000021032
 51
269.9999999999969873
  0
ARC
  5
115BF
  8
0
 10
4.6374203505787381
 20
7.8153246586488816
 30
0.0
 40
0.03
 50
180.0000000000017053
 51
269.9999999999931788
  0
ARC
  5
115C0
  8
0
 10
4.6574203505787342
 20
7.795324658648882
 30
0.0
 40
0.01
 50
270.0
 51
359.999999999989825
  0
ARC
  5
115C1
  8
0
 10
3.474420350578737
 20
8.0083246586488812
 30
0.0
 40
0.01
 50
180.0
 51
269.9999999999795932
  0
LINE
  5
115C2
  8
0
 10
3.4644203505787341
 20
8.4303246586488818
 30
0.0
 11
3.4444203505787341
 21
8.4303246586488818
 31
0.0
  0
LINE
  5
115C3
  8
0
 10
3.43435926443588
 20
8.0831472760264642
 30
0.0
 11
3.015696554021484
 21
8.0857047727572642
 31
0.0
  0
ARC
  5
115C4
  8
0
 10
3.434420350578733
 20
8.0931470894488822
 30
0.0
 40
0.01
 50
269.6500000060357252
 51
359.9999999999847091
  0
ARC
  5
115C5
  8
0
 10
9.8745786200244687
 20
8.6207924981094344
 30
0.0
 40
7.678089589217489
 50
173.7302093608888924
 51
177.3955156212111035
  0
LINE
  5
115C6
  8
0
 10
2.5196850071787331
 20
7.5927139710321052
 30
0.0
 11
2.5196850071787331
 21
6.3843004908488741
 31
0.0
  0
ARC
  5
115C7
  8
0
 10
3.0126850071787308
 20
7.592713971032107
 30
0.0
 40
0.493
 50
89.6500000060262039
 51
180.000000000000199
  0
LINE
  5
115C8
  8
0
 10
2.2624141798787329
 20
5.6891699456488789
 30
0.0
 11
2.2997502817537798
 21
5.6891699456488789
 31
0.0
  0
ARC
  5
115C9
  8
0
 10
2.2624141798787329
 20
5.7091699456488794
 30
0.0
 40
0.02
 50
179.9999999999967883
 51
270.0
  0
ARC
  5
115CA
  8
0
 10
8.6274642016780252
 20
6.4250570211976568
 30
0.0
 40
6.4250570492266377
 50
181.4343530771272981
 51
186.3972435972725066
  0
ARC
  5
115CB
  8
0
 10
1.259842487478755
 20
6.3843004908488741
 30
0.0
 40
1.2598425196999781
 50
327.0074983729870723
 51
0.0
  0
ARC
  5
115CC
  8
0
 10
2.2997502817537798
 20
5.7091699456488829
 30
0.0
 40
0.02
 50
270.0
 51
327.0074983729768974
  0
LINE
  5
115CD
  8
0
 10
2.2997502817537798
 20
5.6891699456488789
 30
0.0
 11
2.2997502817537798
 21
8.0941696451549028
 31
0.0
  0
ARC
  5
115CE
  8
0
 10
2.998234554795665
 20
7.998560055741641
 30
0.0
 40
0.7049974987718911
 50
124.2556903951359004
 51
172.2057051123981921
  0
ARC
  5
115CF
  8
0
 10
3.2545316975051861
 20
7.674968846871927
 30
0.0
 40
1.1171176099895219
 50
117.0601808951246028
 51
125.7787909319071957
  0
ARC
  5
115D0
  8
0
 10
3.0103252287443052
 20
8.012147498852487
 30
0.0
 40
0.7086575726565714
 50
97.6444403404125723
 51
111.8720219886358933
  0
LINE
  5
115D1
  8
0
 10
2.9160559366787342
 20
8.7145069907488804
 30
0.0
 11
3.4444203505787341
 21
8.7848125747488819
 31
0.0
  0
LINE
  5
115D2
  8
0
 10
4.316420350578734
 20
6.8343004908488796
 30
0.0
 11
4.316420350578734
 21
6.1343004908488767
 31
0.0
  0
LINE
  5
115D3
  8
0
 10
4.3414203505787352
 20
6.8593004908488799
 30
0.0
 11
4.6674203505787331
 21
6.8593004908488799
 31
0.0
  0
LINE
  5
115D4
  8
0
 10
3.5434203505787352
 20
6.78430049084887
 30
0.0
 11
3.8924203505787349
 21
6.7843004908488762
 31
0.0
  0
LINE
  5
115D5
  8
0
 10
3.9324203505787381
 20
6.7843004908488771
 30
0.0
 11
4.316420350578734
 21
6.7843004908488833
 31
0.0
  0
LINE
  5
115D6
  8
0
 10
3.9124203505787341
 20
6.7643004908488757
 30
0.0
 11
3.9124203505787341
 21
6.204300490848885
 31
0.0
  0
LINE
  5
115D7
  8
0
 10
3.5334203505787349
 20
6.7743004908488711
 30
0.0
 11
3.5334203505787349
 21
6.1943004908488879
 31
0.0
  0
ARC
  5
115D8
  8
0
 10
4.3414203505787308
 20
6.8343004908488831
 30
0.0
 40
0.025
 50
89.9999999999918572
 51
180.0000000000061107
  0
ARC
  5
115D9
  8
0
 10
3.9324203505787381
 20
6.7643004908488757
 30
0.0
 40
0.02
 50
90.000000000010175
 51
179.9999999999961915
  0
ARC
  5
115DA
  8
0
 10
3.8924203505787331
 20
6.7643004908488757
 30
0.0
 40
0.02
 50
0.0
 51
89.9999999999949125
  0
ARC
  5
115DB
  8
0
 10
3.5434203505787312
 20
6.774300490848872
 30
0.0
 40
0.01
 50
89.9999999999796643
 51
180.0000000000075886
  0
LINE
  5
115DC
  8
0
 10
4.3414203505787352
 20
6.1093004908488799
 30
0.0
 11
4.6674203505787331
 21
6.1093004908488799
 31
0.0
  0
LINE
  5
115DD
  8
0
 10
3.5434203505787352
 20
6.184300490848889
 30
0.0
 11
3.8924203505787349
 21
6.1843004908488837
 31
0.0
  0
LINE
  5
115DE
  8
0
 10
3.9324203505787381
 20
6.1843004908488828
 30
0.0
 11
4.316420350578734
 21
6.1843004908488783
 31
0.0
  0
ARC
  5
115DF
  8
0
 10
4.3414203505787308
 20
6.1343004908488767
 30
0.0
 40
0.025
 50
179.9999999999938893
 51
270.0000000000080718
  0
ARC
  5
115E0
  8
0
 10
3.9324203505787381
 20
6.204300490848885
 30
0.0
 40
0.02
 50
180.0000000000038085
 51
269.999999999989825
  0
ARC
  5
115E1
  8
0
 10
3.8924203505787331
 20
6.204300490848885
 30
0.0
 40
0.02
 50
270.0000000000051159
 51
0.0
  0
ARC
  5
115E2
  8
0
 10
3.5434203505787312
 20
6.1943004908488879
 30
0.0
 40
0.01
 50
179.9999999999922977
 51
270.0000000000204068
  0
LINE
  5
115E3
  8
0
 10
5.7274203505787344
 20
8.7848125747488801
 30
0.0
 11
10.7615311311690593
 21
13.0610824918094597
 31
0.0
  0
ENDBLK
  5
115E7
  8
0
  0
ENDSEC
  0
SECTION
  2
ENTITIES
  0
ATTDEF
  5
3930
  8
DEFPOINTS
 10
3735.0990206228148054
 20
121.6279872821341996
 30
0.0
 40
0.001
  1
P34131-LV
  3

  2
MODELNUMBER
 70
     0
1001
ACDBATTR
1070
     0
1070
     1
  0
ATTDEF
  5
3931
  8
DEFPOINTS
 10
3735.0990206228148054
 20
121.6263206154675061
 30
0.0
 40
0.001
  1
002
  3

  2
TRADENAME
 70
     0
1001
ACDBATTR
1070
     0
1070
     1
  0
ATTDEF
  5
3932
  8
DEFPOINTS
 10
3735.0990206228148054
 20
121.6246539488008978
 30
0.0
 40
0.001
  1
VALVE TRIM
  3

  2
PRODUCT
 70
     0
1001
ACDBATTR
1070
     0
1070
     1
  0
ARC
  5
11602
  8
0
 10
3735.0992878415818268
 20
119.2293947296522987
 30
0.0
 40
0.6951305451999992
 50
180.0
 51
0.0
  0
LINE
  5
11603
  8
0
 10
3734.4041572963819817
 20
119.2293947296522987
 30
0.0
 11
3734.4041572963819817
 21
121.6299068135523953
 31
0.0
  0
CIRCLE
  5
11604
  8
0
 10
3735.0992878415818268
 20
121.6299068135523953
 30
0.0
 40
3.124487916100001
  0
ARC
  5
11605
  8
0
 10
3735.0992878415818268
 20
121.6299068135523953
 30
0.0
 40
0.9994879161000005
 50
314.0660130272354991
 51
225.9339869727639041
  0
ARC
  5
11606
  8
0
 10
3735.0992878415818268
 20
121.6299068135523953
 30
0.0
 40
0.7864879161000005
 50
332.1092735325576086
 51
207.8907264674417092
  0
ARC
  5
11607
  8
0
 10
3735.0992878415818268
 20
121.6299068135523953
 30
0.0
 40
0.6951305451999988
 50
0.0
 51
180.0
  0
LINE
  5
11608
  8
0
 10
3735.7944183867812171
 20
119.2293947296522987
 30
0.0
 11
3735.7944183867812171
 21
121.6299068135523953
 31
0.0
  0
ARC
  5
1160A
  8
0
 10
3735.0992878415818268
 20
121.6299068135523953
 30
0.0
 40
0.7016654852999969
 50
352.1741589740536256
 51
187.8258410259448112
  0
ARC
  5
1160B
  8
0
 10
3735.0992878415818268
 20
121.6299068135523953
 30
0.0
 40
0.8049998371242574
 50
329.713724579976315
 51
210.2862754200230029
  0
LINE
  5
1160C
  8
0
 10
3734.2960669624949333
 20
121.6833947296523064
 30
0.0
 11
3734.266787841581845
 21
121.6833947296523064
 31
0.0
  0
ARC
  5
1160D
  8
0
 10
3734.266787841581845
 20
121.6299068135523953
 30
0.0
 40
0.053487916099999
 50
90.0
 51
270.0
  0
LINE
  5
1160E
  8
0
 10
3734.266787841581845
 20
121.5764188974523989
 30
0.0
 11
3734.2960669624949333
 21
121.5764188974523989
 31
0.0
  0
LINE
  5
1160F
  8
0
 10
3735.9025087206678108
 20
121.6833947296523064
 30
0.0
 11
3735.9317878415818086
 21
121.6833947296523064
 31
0.0
  0
ARC
  5
11610
  8
0
 10
3735.9317878415818086
 20
121.6299068135523953
 30
0.0
 40
0.053487916099999
 50
270.0
 51
90.0
  0
LINE
  5
11611
  8
0
 10
3735.9317878415818086
 20
121.5764188974523989
 30
0.0
 11
3735.9025087206678108
 21
121.5764188974523989
 31
0.0
  0
ENDSEC
  0
EOF
