  0
SECTION
  2
HEADER
  9
$ACADVER
  1
AC1009
  9
$INSBASE
 10
5234.7131799618236982
 20
493.2719002634403864
 30
0.0
  9
$EXTMIN
 10
5232.8491979770242324
 20
490.0269000008516969
 30
0.0
  9
$EXTMAX
 10
5236.5881799618236982
 20
493.2772980890122767
 30
0.0
  9
$LIMMIN
 10
0.0
 20
0.0
  9
$LIMMAX
 10
11.6929133858000007
 20
8.2677165353999982
  9
$ORTHOMODE
 70
     0
  9
$REGENMODE
 70
     1
  9
$FILLMODE
 70
     1
  9
$QTEXTMODE
 70
     0
  9
$MIRRTEXT
 70
     0
  9
$DRAGMODE
 70
     2
  9
$LTSCALE
 40
0.6431102362
  9
$OSMODE
 70
  4095
  9
$ATTMODE
 70
     1
  9
$TEXTSIZE
 40
0.2
  9
$TRACEWID
 40
0.05
  9
$TEXTSTYLE
  7
STANDARD
  9
$CLAYER
  8
0
  9
$CELTYPE
  6
BYLAYER
  9
$CECOLOR
 62
   256
  9
$DIMSCALE
 40
1.0
  9
$DIMASZ
 40
0.1875
  9
$DIMEXO
 40
0.0625
  9
$DIMDLI
 40
0.4443307087
  9
$DIMRND
 40
0.0
  9
$DIMDLE
 40
0.0
  9
$DIMEXE
 40
0.125
  9
$DIMTP
 40
0.01
  9
$DIMTM
 40
0.01
  9
$DIMTXT
 40
2.0
  9
$DIMCEN
 40
0.1052362205
  9
$DIMTSZ
 40
0.0
  9
$DIMTOL
 70
     1
  9
$DIMLIM
 70
     0
  9
$DIMTIH
 70
     1
  9
$DIMTOH
 70
     1
  9
$DIMSE1
 70
     0
  9
$DIMSE2
 70
     0
  9
$DIMTAD
 70
     0
  9
$DIMZIN
 70
     0
  9
$DIMBLK
  1

  9
$DIMASO
 70
     1
  9
$DIMSHO
 70
     1
  9
$DIMPOST
  1
\X
  9
$DIMAPOST
  1

  9
$DIMALT
 70
     1
  9
$DIMALTD
 70
     2
  9
$DIMALTF
 40
25.3999999999999986
  9
$DIMLFAC
 40
1.0
  9
$DIMTOFL
 70
     0
  9
$DIMTVP
 40
0.0
  9
$DIMTIX
 70
     0
  9
$DIMSOXD
 70
     0
  9
$DIMSAH
 70
     0
  9
$DIMBLK1
  1

  9
$DIMBLK2
  1

  9
$DIMSTYLE
  2
STANDARD
  9
$DIMCLRD
 70
     0
  9
$DIMCLRE
 70
     0
  9
$DIMCLRT
 70
     0
  9
$DIMTFAC
 40
1.0
  9
$DIMGAP
 40
0.09
  9
$LUNITS
 70
     2
  9
$LUPREC
 70
     4
  9
$SKETCHINC
 40
0.1
  9
$FILLETRAD
 40
0.0
  9
$AUNITS
 70
     0
  9
$AUPREC
 70
     0
  9
$MENU
  1
.
  9
$ELEVATION
 40
0.0
  9
$PELEVATION
 40
0.0
  9
$THICKNESS
 40
0.0
  9
$LIMCHECK
 70
     0
  9
$BLIPMODE
 70
     0
  9
$CHAMFERA
 40
0.0
  9
$CHAMFERB
 40
0.0
  9
$SKPOLY
 70
     0
  9
$TDCREATE
 40
2458060.468368056230247
  9
$TDUPDATE
 40
2460095.9421759261749685
  9
$TDINDWG
 40
0.7024954861
  9
$TDUSRTIMER
 40
0.7024954861
  9
$USRTIMER
 70
     1
  9
$ANGBASE
 50
0.0
  9
$ANGDIR
 70
     0
  9
$PDMODE
 70
     0
  9
$PDSIZE
 40
0.3125
  9
$PLINEWID
 40
0.0
  9
$COORDS
 70
     1
  9
$SPLFRAME
 70
     0
  9
$SPLINETYPE
 70
     6
  9
$SPLINESEGS
 70
     8
  9
$ATTDIA
 70
     1
  9
$ATTREQ
 70
     1
  9
$HANDLING
 70
     1
  9
$HANDSEED
  5
18C86
  9
$SURFTAB1
 70
     6
  9
$SURFTAB2
 70
     6
  9
$SURFTYPE
 70
     6
  9
$SURFU
 70
     6
  9
$SURFV
 70
     6
  9
$UCSNAME
  2

  9
$UCSORG
 10
0.0
 20
0.0
 30
0.0
  9
$UCSXDIR
 10
1.0
 20
0.0
 30
0.0
  9
$UCSYDIR
 10
0.0
 20
1.0
 30
0.0
  9
$PUCSNAME
  2

  9
$PUCSORG
 10
0.0
 20
0.0
 30
0.0
  9
$PUCSXDIR
 10
1.0
 20
0.0
 30
0.0
  9
$PUCSYDIR
 10
0.0
 20
1.0
 30
0.0
  9
$USERI1
 70
     0
  9
$USERI2
 70
     0
  9
$USERI3
 70
     0
  9
$USERI4
 70
     0
  9
$USERI5
 70
     0
  9
$USERR1
 40
0.0
  9
$USERR2
 40
0.0
  9
$USERR3
 40
0.0
  9
$USERR4
 40
0.0
  9
$USERR5
 40
0.0
  9
$WORLDVIEW
 70
     1
  9
$SHADEDGE
 70
     3
  9
$SHADEDIF
 70
    70
  9
$TILEMODE
 70
     1
  9
$MAXACTVP
 70
    64
  9
$PLIMCHECK
 70
     0
  9
$PEXTMIN
 10
1.0000000000000000E+20
 20
1.0000000000000000E+20
 30
1.0000000000000000E+20
  9
$PEXTMAX
 10
-1.0000000000000000E+20
 20
-1.0000000000000000E+20
 30
-1.0000000000000000E+20
  9
$PLIMMIN
 10
0.0
 20
0.0
  9
$PLIMMAX
 10
12.0
 20
9.0
  9
$UNITMODE
 70
     0
  9
$VISRETAIN
 70
     1
  9
$PLINEGEN
 70
     0
  9
$PSLTSCALE
 70
     1
  0
ENDSEC
  0
SECTION
  2
TABLES
  0
TABLE
  2
VPORT
 70
     1
  0
VPORT
  2
*ACTIVE
 70
     0
 10
0.0
 20
0.0
 11
1.0
 21
1.0
 12
1431.1746215866110106
 22
365.6568368481820812
 13
0.0
 23
0.0
 14
1.0
 24
1.0
 15
0.0
 25
0.0
 16
0.0
 26
0.0
 36
17.1152628219792007
 17
3803.5440673828129547
 27
125.9952621967499056
 37
0.0
 40
3.2764648638237892
 41
2.5251322751322749
 42
50.0
 43
0.0
 44
0.0
 50
0.0
 51
0.0
 71
     0
 72
   100
 73
     1
 74
     1
 75
     0
 76
     0
 77
     0
 78
     0
  0
ENDTAB
  0
TABLE
  2
LTYPE
 70
     2
  0
LTYPE
  2
CONTINUOUS
 70
     0
  3
Solid line
 72
    65
 73
     0
 40
0.0
  0
LTYPE
  2
PHANTOM2
 70
     0
  3
___ _ _ ___ _ _ ___ _ _ ___ _ _
 72
    65
 73
     6
 40
1.25
 49
0.625
 49
-0.125
 49
0.125
 49
-0.125
 49
0.125
 49
-0.125
  0
ENDTAB
  0
TABLE
  2
LAYER
 70
     2
  0
LAYER
  2
0
 70
     0
 62
   255
  6
CONTINUOUS
  0
LAYER
  2
DEFPOINTS
 70
     0
 62
     7
  6
CONTINUOUS
  0
ENDTAB
  0
TABLE
  2
STYLE
 70
     1
  0
STYLE
  2
STANDARD
 70
     0
 40
0.0
 41
0.8
 50
0.0
 71
     0
 42
0.2
  3
txt
  4

  0
ENDTAB
  0
TABLE
  2
VIEW
 70
     0
  0
ENDTAB
  0
TABLE
  2
UCS
 70
     0
  0
ENDTAB
  0
TABLE
  2
APPID
 70
    10
  0
APPID
  2
ACAD
 70
     0
  0
APPID
  2
ACAD_MLEADERVER
 70
     0
  0
APPID
  2
ACAD_EXEMPT_FROM_CAD_STANDARDS
 70
     0
  0
APPID
  2
ACAD_NAV_VCDISPLAY
 70
     0
  0
APPID
  2
ACAECLAYERSTANDARD
 70
     0
  0
APPID
  2
ACCMTRANSPARENCY
 70
     0
  0
APPID
  2
ACAD_DSTYLE_DIMJAG
 70
     0
  0
APPID
  2
ACAD_DSTYLE_DIMTALN
 70
     0
  0
APPID
  2
ACDBATTR
 70
     0
  0
APPID
  2
ACADANNOTATIVE
 70
     0
  0
ENDTAB
  0
TABLE
  2
DIMSTYLE
 70
     2
  0
DIMSTYLE
  2
STANDARD
 70
     0
  3

  4

  5

  6

  7

 40
1.0
 41
0.1875
 42
0.0625
 43
0.38
 44
0.125
 45
0.0
 46
0.0
 47
0.01
 48
0.01
140
0.15625
141
0.09
142
0.0
143
25.3999999999999986
144
1.0
145
0.0
146
1.0
147
0.09
 71
     1
 72
     0
 73
     1
 74
     1
 75
     0
 76
     0
 77
     0
 78
     4
170
     0
171
     2
172
     0
173
     0
174
     0
175
     0
176
     0
177
     0
178
     0
  0
DIMSTYLE
  2
ANNOTATIVE
 70
     0
  3

  4

  5

  6

  7

 40
0.0
 41
0.18
 42
0.0625
 43
0.38
 44
0.18
 45
0.0
 46
0.0
 47
0.0
 48
0.0
140
0.18
141
0.09
142
0.0
143
25.3999999999999986
144
1.0
145
0.0
146
1.0
147
0.09
 71
     0
 72
     0
 73
     1
 74
     1
 75
     0
 76
     0
 77
     0
 78
     0
170
     0
171
     2
172
     0
173
     0
174
     0
175
     0
176
     0
177
     0
178
     0
  0
ENDTAB
  0
ENDSEC
  0
SECTION
  2
BLOCKS
  0
BLOCK
  8
0
  2
$MODEL_SPACE
 70
     0
 10
0.0
 20
0.0
 30
0.0
  3
$MODEL_SPACE
  1

  0
ENDBLK
  5
21
  8
0
  0
BLOCK
 67
     1
  8
0
  2
$PAPER_SPACE
 70
     0
 10
0.0
 20
0.0
 30
0.0
  3
$PAPER_SPACE
  1

  0
ENDBLK
  5
1D
 67
     1
  8
0
  0
BLOCK
  8
0
  2
_FILLED
 70
     0
 10
0.0
 20
0.0
 30
0.0
  3
_FILLED
  1

  0
SOLID
  5
13053
  8
0
  6
BYBLOCK
 62
     0
 10
0.0
 20
0.0
 30
0.0
 11
-1.0
 21
0.1666666667
 31
0.0
 12
-1.0
 22
-0.1666666667
 32
0.0
 13
-1.0
 23
-0.1666666667
 33
0.0
  0
ENDBLK
  5
13054
  8
0
  6
BYBLOCK
 62
     0
  0
ENDSEC
  0
SECTION
  2
ENTITIES
  0
ATTDEF
  5
3930
  8
DEFPOINTS
 10
5234.7109214789943508
 20
493.276298089012414
 30
0.0
 40
0.001
  1
P34134-LV
  3

  2
MODELNUMBER
 70
     0
1001
ACDBATTR
1070
     0
1070
     1
  0
ATTDEF
  5
3931
  8
DEFPOINTS
 10
5234.7109214789943508
 20
493.274631422345692
 30
0.0
 40
0.001
  1
002
  3

  2
TRADENAME
 70
     0
1001
ACDBATTR
1070
     0
1070
     1
  0
ATTDEF
  5
3932
  8
DEFPOINTS
 10
5234.7109214789943508
 20
493.2729647556790269
 30
0.0
 40
0.001
  1
VALVE TRIM
  3

  2
PRODUCT
 70
     0
1001
ACDBATTR
1070
     0
1070
     1
  0
LINE
  5
18BEA
  8
0
 10
5234.0177822191153609
 20
490.0845940927403035
 30
0.0
 11
5234.0177822191153609
 21
491.2569002634404001
 31
0.0
  0
LINE
  5
18BEB
  8
0
 10
5233.8131799619241065
 20
491.3319002634403887
 30
0.0
 11
5233.8131799619241065
 21
492.5719002634402841
 31
0.0
  0
LINE
  5
18BEC
  8
0
 10
5232.8491979770242324
 20
493.2719002634403864
 30
0.0
 11
5236.5881799618236982
 21
493.2719002634403864
 31
0.0
  0
LINE
  5
18BED
  8
0
 10
5232.9302053309857001
 20
492.5719002634402841
 30
0.0
 11
5236.5071726079631844
 21
492.5719002634402841
 31
0.0
  0
LINE
  5
18BEE
  8
0
 10
5233.8431799619229423
 20
491.301900263440416
 30
0.0
 11
5235.5831799619236335
 21
491.301900263440416
 31
0.0
  0
LINE
  5
18BEF
  8
0
 10
5234.0277822191146697
 20
491.2669002634402773
 30
0.0
 11
5235.3985777047319061
 21
491.2669002634402773
 31
0.0
  0
LINE
  5
18BF0
  8
0
 10
5234.0374822191161002
 20
490.0648940927403032
 30
0.0
 11
5235.3888777047322947
 21
490.0648940927403032
 31
0.0
  0
LINE
  5
18BF1
  8
0
 10
5232.8491979771242768
 20
493.2719002634403864
 30
0.0
 11
5232.8602159923239014
 21
492.6406785950404128
 31
0.0
  0
ARC
  5
18BF2
  8
0
 10
5232.9302053309857001
 20
492.6419002634402773
 30
0.0
 40
0.07
 50
180.9999999994541895
 51
270.0
  0
ARC
  5
18BF3
  8
0
 10
5233.8431799619229423
 20
491.3319002634403887
 30
0.0
 40
0.03
 50
180.0000000000032117
 51
270.0
  0
ARC
  5
18BF4
  8
0
 10
5234.0277822191146697
 20
491.2569002634404001
 30
0.0
 40
0.01
 50
90.0
 51
179.9999999999901945
  0
ARC
  5
18BF5
  8
0
 10
5234.0374822191161002
 20
490.0845940927403035
 30
0.0
 40
0.0197
 50
179.9999999999934914
 51
270.0
  0
LINE
  5
18BF6
  8
0
 10
5234.3581799619241792
 20
491.301900263440416
 30
0.0
 11
5234.3581799619241792
 21
491.2669002634402773
 31
0.0
  0
ARC
  5
18BF7
  8
0
 10
5234.7114054476151068
 20
496.0227804954304247
 30
0.0
 40
5.9958804945787891
 50
263.546448499138819
 51
270.0169570060863862
  0
LINE
  5
18BF8
  8
0
 10
5235.4085777047321244
 20
490.0845940927403035
 30
0.0
 11
5235.4085777047321244
 21
491.2569002634404001
 31
0.0
  0
LINE
  5
18BF9
  8
0
 10
5235.6131799619233789
 20
491.3319002634403887
 30
0.0
 11
5235.6131799619233789
 21
492.5719002634402841
 31
0.0
  0
LINE
  5
18BFA
  8
0
 10
5236.5881799618236982
 20
493.2719002634403864
 30
0.0
 11
5236.5771619466240736
 21
492.6406785950404128
 31
0.0
  0
ARC
  5
18BFB
  8
0
 10
5236.5071726079631844
 20
492.6419002634402773
 30
0.0
 40
0.07
 50
270.0
 51
359.0000000005458105
  0
ARC
  5
18BFC
  8
0
 10
5235.5831799619236335
 20
491.3319002634403887
 30
0.0
 40
0.03
 50
270.0
 51
359.9999999999968168
  0
ARC
  5
18BFD
  8
0
 10
5235.3985777047319061
 20
491.2569002634404001
 30
0.0
 40
0.01
 50
0.0000000000097707
 51
90.0
  0
ARC
  5
18BFE
  8
0
 10
5235.3888777047322947
 20
490.0845940927403035
 30
0.0
 40
0.0197
 50
270.0
 51
0.0000000000065138
  0
LINE
  5
18BFF
  8
0
 10
5235.0681799619242156
 20
491.301900263440416
 30
0.0
 11
5235.0681799619242156
 21
491.2669002634402773
 31
0.0
  0
ARC
  5
18C00
  8
0
 10
5234.7149544762323785
 20
496.0227804954304247
 30
0.0
 40
5.9958804945787891
 50
269.9830429939136138
 51
276.453551500861181
  0
ENDSEC
  0
EOF
