  0
SECTION
  2
HEADER
  9
$ACADVER
  1
AC1009
  9
$INSBASE
 10
588.7034276890964293
 20
-8.6853051021146364
 30
0.0
  9
$EXTMIN
 10
579.5874894874303891
 20
-14.4432967428219499
 30
-0.0000000349181948
  9
$EXTMAX
 10
588.7505012618190676
 20
-7.6022334320444207
 30
0.0000000814935746
  9
$LIMMIN
 10
0.0
 20
0.0
  9
$LIMMAX
 10
11.6929133858000007
 20
8.2677165353999982
  9
$ORTHOMODE
 70
     0
  9
$REGENMODE
 70
     1
  9
$FILLMODE
 70
     1
  9
$QTEXTMODE
 70
     0
  9
$MIRRTEXT
 70
     0
  9
$DRAGMODE
 70
     2
  9
$LTSCALE
 40
0.6431102362
  9
$OSMODE
 70
  3999
  9
$ATTMODE
 70
     1
  9
$TEXTSIZE
 40
0.2
  9
$TRACEWID
 40
0.05
  9
$TEXTSTYLE
  7
STANDARD
  9
$CLAYER
  8
0
  9
$CELTYPE
  6
BYLAYER
  9
$CECOLOR
 62
   256
  9
$DIMSCALE
 40
1.0
  9
$DIMASZ
 40
0.1875
  9
$DIMEXO
 40
0.0625
  9
$DIMDLI
 40
0.4443307087
  9
$DIMRND
 40
0.0
  9
$DIMDLE
 40
0.0
  9
$DIMEXE
 40
0.125
  9
$DIMTP
 40
0.01
  9
$DIMTM
 40
0.01
  9
$DIMTXT
 40
1.0
  9
$DIMCEN
 40
0.1052362205
  9
$DIMTSZ
 40
0.0
  9
$DIMTOL
 70
     1
  9
$DIMLIM
 70
     0
  9
$DIMTIH
 70
     1
  9
$DIMTOH
 70
     1
  9
$DIMSE1
 70
     0
  9
$DIMSE2
 70
     0
  9
$DIMTAD
 70
     0
  9
$DIMZIN
 70
     0
  9
$DIMBLK
  1

  9
$DIMASO
 70
     1
  9
$DIMSHO
 70
     1
  9
$DIMPOST
  1
\X
  9
$DIMAPOST
  1

  9
$DIMALT
 70
     1
  9
$DIMALTD
 70
     2
  9
$DIMALTF
 40
25.3999999999999986
  9
$DIMLFAC
 40
1.0
  9
$DIMTOFL
 70
     0
  9
$DIMTVP
 40
0.0
  9
$DIMTIX
 70
     0
  9
$DIMSOXD
 70
     0
  9
$DIMSAH
 70
     0
  9
$DIMBLK1
  1

  9
$DIMBLK2
  1

  9
$DIMSTYLE
  2
STANDARD
  9
$DIMCLRD
 70
     0
  9
$DIMCLRE
 70
     0
  9
$DIMCLRT
 70
     0
  9
$DIMTFAC
 40
1.0
  9
$DIMGAP
 40
0.09
  9
$LUNITS
 70
     2
  9
$LUPREC
 70
     4
  9
$SKETCHINC
 40
0.1
  9
$FILLETRAD
 40
0.0
  9
$AUNITS
 70
     0
  9
$AUPREC
 70
     0
  9
$MENU
  1
.
  9
$ELEVATION
 40
0.0
  9
$PELEVATION
 40
0.0
  9
$THICKNESS
 40
0.0
  9
$LIMCHECK
 70
     0
  9
$BLIPMODE
 70
     0
  9
$CHAMFERA
 40
0.0
  9
$CHAMFERB
 40
0.0
  9
$SKPOLY
 70
     0
  9
$TDCREATE
 40
2458306.6094560190103948
  9
$TDUPDATE
 40
2460193.5880439821630716
  9
$TDINDWG
 40
0.1309465278
  9
$TDUSRTIMER
 40
0.1309464005
  9
$USRTIMER
 70
     1
  9
$ANGBASE
 50
0.0
  9
$ANGDIR
 70
     0
  9
$PDMODE
 70
     0
  9
$PDSIZE
 40
0.3125
  9
$PLINEWID
 40
0.0
  9
$COORDS
 70
     1
  9
$SPLFRAME
 70
     0
  9
$SPLINETYPE
 70
     6
  9
$SPLINESEGS
 70
     8
  9
$ATTDIA
 70
     1
  9
$ATTREQ
 70
     1
  9
$HANDLING
 70
     1
  9
$HANDSEED
  5
46DA
  9
$SURFTAB1
 70
     6
  9
$SURFTAB2
 70
     6
  9
$SURFTYPE
 70
     6
  9
$SURFU
 70
     6
  9
$SURFV
 70
     6
  9
$UCSNAME
  2

  9
$UCSORG
 10
0.0
 20
0.0
 30
0.0
  9
$UCSXDIR
 10
1.0
 20
0.0
 30
0.0
  9
$UCSYDIR
 10
0.0
 20
1.0
 30
0.0
  9
$PUCSNAME
  2

  9
$PUCSORG
 10
0.0
 20
0.0
 30
0.0
  9
$PUCSXDIR
 10
1.0
 20
0.0
 30
0.0
  9
$PUCSYDIR
 10
0.0
 20
1.0
 30
0.0
  9
$USERI1
 70
     0
  9
$USERI2
 70
     0
  9
$USERI3
 70
     0
  9
$USERI4
 70
     0
  9
$USERI5
 70
     0
  9
$USERR1
 40
0.0
  9
$USERR2
 40
0.0
  9
$USERR3
 40
0.0
  9
$USERR4
 40
0.0
  9
$USERR5
 40
0.0
  9
$WORLDVIEW
 70
     1
  9
$SHADEDGE
 70
     3
  9
$SHADEDIF
 70
    70
  9
$TILEMODE
 70
     1
  9
$MAXACTVP
 70
    64
  9
$PLIMCHECK
 70
     0
  9
$PEXTMIN
 10
1.0000000000000000E+20
 20
1.0000000000000000E+20
 30
1.0000000000000000E+20
  9
$PEXTMAX
 10
-1.0000000000000000E+20
 20
-1.0000000000000000E+20
 30
-1.0000000000000000E+20
  9
$PLIMMIN
 10
0.0
 20
0.0
  9
$PLIMMAX
 10
12.0
 20
9.0
  9
$UNITMODE
 70
     0
  9
$VISRETAIN
 70
     1
  9
$PLINEGEN
 70
     0
  9
$PSLTSCALE
 70
     1
  0
ENDSEC
  0
SECTION
  2
TABLES
  0
TABLE
  2
VPORT
 70
     1
  0
VPORT
  2
*ACTIVE
 70
     0
 10
0.0
 20
0.0
 11
1.0
 21
1.0
 12
68.873230743453064
 22
-5.1224943869784729
 13
0.0
 23
0.0
 14
1.0
 24
1.0
 15
0.0
 25
0.0
 16
0.0
 26
0.0
 36
51.4704153786931471
 17
515.2957646311716644
 27
-5.900270700454711
 37
0.0
 40
6.891303677808942
 41
2.3419117647058818
 42
50.0
 43
0.0
 44
0.0
 50
0.0
 51
0.0
 71
     0
 72
   100
 73
     1
 74
     1
 75
     0
 76
     0
 77
     0
 78
     0
  0
ENDTAB
  0
TABLE
  2
LTYPE
 70
     1
  0
LTYPE
  2
CONTINUOUS
 70
     0
  3
Solid line
 72
    65
 73
     0
 40
0.0
  0
ENDTAB
  0
TABLE
  2
LAYER
 70
     3
  0
LAYER
  2
0
 70
     0
 62
   255
  6
CONTINUOUS
  0
LAYER
  2
DEFPOINT
 70
     0
 62
     7
  6
CONTINUOUS
  0
LAYER
  2
DEFPOINTS
 70
     0
 62
     7
  6
CONTINUOUS
  0
ENDTAB
  0
TABLE
  2
STYLE
 70
     1
  0
STYLE
  2
STANDARD
 70
     0
 40
0.0
 41
0.8
 50
0.0
 71
     0
 42
0.2
  3
txt
  4

  0
ENDTAB
  0
TABLE
  2
VIEW
 70
     0
  0
ENDTAB
  0
TABLE
  2
UCS
 70
     0
  0
ENDTAB
  0
TABLE
  2
APPID
 70
    10
  0
APPID
  2
ACAD
 70
     0
  0
APPID
  2
ACADANNOTATIVE
 70
     0
  0
APPID
  2
ACAD_MLEADERVER
 70
     0
  0
APPID
  2
ACAD_EXEMPT_FROM_CAD_STANDARDS
 70
     0
  0
APPID
  2
ACAD_DSTYLE_DIMJAG
 70
     0
  0
APPID
  2
ACAD_DSTYLE_DIMTALN
 70
     0
  0
APPID
  2
ACAD_NAV_VCDISPLAY
 70
     0
  0
APPID
  2
ACAECLAYERSTANDARD
 70
     0
  0
APPID
  2
ACCMTRANSPARENCY
 70
     0
  0
APPID
  2
ACDBATTR
 70
     0
  0
ENDTAB
  0
TABLE
  2
DIMSTYLE
 70
     1
  0
DIMSTYLE
  2
STANDARD
 70
     0
  3

  4

  5

  6

  7

 40
1.0
 41
0.1875
 42
0.0625
 43
0.38
 44
0.125
 45
0.0
 46
0.0
 47
0.01
 48
0.01
140
0.15625
141
0.09
142
0.0
143
25.3999999999999986
144
1.0
145
0.0
146
1.0
147
0.09
 71
     1
 72
     0
 73
     1
 74
     1
 75
     0
 76
     0
 77
     0
 78
     4
170
     0
171
     2
172
     0
173
     0
174
     0
175
     0
176
     0
177
     0
178
     0
  0
ENDTAB
  0
ENDSEC
  0
SECTION
  2
BLOCKS
  0
BLOCK
  8
0
  2
$MODEL_SPACE
 70
     0
 10
0.0
 20
0.0
 30
0.0
  3
$MODEL_SPACE
  1

  0
ENDBLK
  5
1598
  8
0
  0
BLOCK
 67
     1
  8
0
  2
$PAPER_SPACE
 70
     0
 10
0.0
 20
0.0
 30
0.0
  3
$PAPER_SPACE
  1

  0
ENDBLK
  5
1594
 67
     1
  8
0
  0
ENDSEC
  0
SECTION
  2
ENTITIES
  0
ATTDEF
  5
23C5
  8
DEFPOINT
 10
588.7038990198244619
 20
-8.6813040552761773
 30
0.0
 40
0.001
  1
P34135-00
  3

  2
MODELNUMBER
 70
     0
1001
ACDBATTR
1070
     0
1070
     1
  0
ATTDEF
  5
23C6
  8
DEFPOINT
 10
588.7038990198244619
 20
-8.6829707219428425
 30
0.0
 40
0.001
  1

  3

  2
TRADENAME
 70
     0
1001
ACDBATTR
1070
     0
1070
     1
  0
ATTDEF
  5
23C7
  8
DEFPOINT
 10
588.7038990198244619
 20
-8.6846373886095076
 30
0.0
 40
0.001
  1
SHOWERHEAD
  3

  2
PRODUCT
 70
     0
1001
ACDBATTR
1070
     0
1070
     1
  0
LINE
  5
43D0
  8
0
 10
588.7034276890964293
 20
-9.7482972307856421
 30
0.0
 11
588.7034276890964293
 21
-7.6223129734436297
 31
0.0
  0
ARC
  5
43D1
  8
0
 10
588.6837426522677106
 20
-7.622312973514342
 30
0.0
 40
0.0196850368287009
 50
0.0000002058145585
 51
90.0000074840876181
  0
LINE
  5
43D2
  8
0
 10
588.6837426496964554
 20
-7.6026279366856411
 30
0.0
 11
588.349096980396439
 21
-7.6026279366856411
 31
0.0
  0
ARC
  5
43D3
  8
0
 10
588.3490970656266654
 20
-7.6419981006159414
 30
0.0
 40
0.0393701639303926
 50
90.0001240364752846
 51
179.9998761090513142
  0
LINE
  5
43D4
  8
0
 10
588.3097269016964219
 20
-7.6419980154856404
 30
0.0
 11
588.3097241404908573
 21
-9.7286121886838153
 31
0.0
  0
ARC
  5
43D5
  8
0
 10
588.3490941672951067
 20
-9.7286122407819597
 30
0.0
 40
0.0393700268041808
 50
179.9999241808027932
 51
270.0040939476916719
  0
LINE
  5
43D6
  8
0
 10
588.349096980396439
 20
-9.7679822674856425
 30
0.0
 11
588.6837426488422125
 21
-9.7679583560932866
 31
0.0
  0
ARC
  5
43D7
  8
0
 10
588.6837412421879208
 20
-9.7482718929292371
 30
0.0
 40
0.0196864632143042
 50
270.0040939476916719
 51
359.9262563001349235
  0
LINE
  5
43D8
  8
0
 10
588.3097269016964219
 20
-9.0888484091856405
 30
0.0
 11
586.1770409864964222
 21
-9.0888484091856405
 31
0.0
  0
ARC
  5
43D9
  8
0
 10
586.1770409864964222
 20
-10.5947539208891808
 30
0.0
 40
1.5059055117035369
 50
90.0
 51
135.0000000025966074
  0
LINE
  5
43DA
  8
0
 10
585.1122049872964226
 20
-9.5299179217856391
 30
0.0
 11
584.3681937694800581
 21
-10.27392913966934
 31
0.0
  0
LINE
  5
43DB
  8
0
 10
584.4187212658963517
 20
-10.3244566360856407
 30
0.0
 11
583.7469698551964257
 21
-9.6527052253856418
 31
0.0
  0
ARC
  5
43DC
  8
0
 10
583.7328277037962607
 20
-9.6668473767856469
 30
0.0
 40
0.0200000223110221
 50
45.0000000000067573
 51
134.9999362284034987
  0
LINE
  5
43DD
  8
0
 10
583.7186855681369479
 20
-9.6527052096450898
 30
0.0
 11
583.6438326712027447
 21
-9.7275579399532202
 31
0.0
  0
ARC
  5
43DE
  8
0
 10
583.6509035110954073
 20
-9.7346287955858664
 30
0.0
 40
0.0099996888033754
 50
134.9999362284017081
 51
180.0016937146656915
  0
LINE
  5
43DF
  8
0
 10
583.6409038222964227
 20
-9.7346290911856421
 30
0.0
 11
583.6409052495426977
 21
-9.7829106511142285
 31
0.0
  0
ARC
  5
43E0
  8
0
 10
583.6309028633911566
 20
-9.7829109467937396
 30
0.0
 40
0.0100023861558865
 50
314.9956004043601752
 51
0.0016937146580109
  0
LINE
  5
43E1
  8
0
 10
583.6379750753503686
 20
-9.7899842449504462
 30
0.0
 11
583.1405070530629473
 21
-10.2874522673190292
 31
0.0
  0
ARC
  5
43E2
  8
0
 10
583.1472927119067435
 20
-10.2942701545382995
 30
0.0
 40
0.0096191866641679
 50
134.8642599195729872
 51
170.7411339884818062
  0
ARC
  5
43E3
  8
0
 10
583.3636028823121933
 20
-10.3325383730612206
 30
0.0
 40
0.2292875212139539
 50
169.9998629404651922
 51
202.4850159836732075
  0
ARC
  5
43E4
  8
0
 10
583.0870554967964381
 20
-10.4469698406856395
 30
0.0
 40
0.069999999999998
 50
264.4534798539110056
 51
22.4596895352830401
  0
ARC
  5
43E5
  8
0
 10
583.0291529066349767
 20
-11.0445507248249193
 30
0.0
 40
0.5303795675787559
 50
84.4672034347105125
 51
96.6361436340208968
  0
LINE
  5
43E6
  8
0
 10
582.7443703724964053
 20
-10.2942347965856396
 30
0.0
 11
583.7771916946434203
 21
-11.32705611863733
 31
0.0
  0
ARC
  5
43E7
  8
0
 10
583.763272269794129
 20
-11.3409755434879802
 30
0.0
 40
0.0196850394033045
 50
314.9999998038080093
 51
45.0000000026441995
  0
LINE
  5
43E8
  8
0
 10
583.777191694596354
 20
-11.3548949683856399
 30
0.0
 11
583.2784587013890132
 21
-11.8536279581775208
 31
0.0
  0
ARC
  5
43E9
  8
0
 10
583.267852099670904
 20
-11.8430213563866999
 30
0.0
 40
0.0150000000518949
 50
225.0000095194151015
 51
314.9999998038042008
  0
LINE
  5
43EA
  8
0
 10
583.2572454996785609
 20
-11.8536279599034398
 30
0.0
 11
582.2177983585801258
 21
-10.8141811642029904
 31
0.0
  0
ARC
  5
43EB
  8
0
 10
582.2284049567574584
 20
-10.80357456250103
 30
0.0
 40
0.0149999974854277
 50
134.9990574923529891
 51
225.0000095194183984
  0
LINE
  5
43EC
  8
0
 10
582.2177985312963528
 20
-10.7929677880856403
 30
0.0
 11
582.7165397268677225
 21
-10.2942430006918499
 31
0.0
  0
ARC
  5
43ED
  8
0
 10
582.7304591543370407
 20
-10.3081628861140793
 30
0.0
 40
0.0196853669319004
 50
45.0347227787591109
 51
134.9990574923540123
  0
LINE
  5
43EE
  8
0
 10
583.7974973515963484
 20
-9.7032327217856427
 30
0.0
 11
584.5415085692043249
 21
-8.9592215040263383
 31
0.0
  0
ARC
  5
43EF
  8
0
 10
586.1770409864964222
 20
-10.5947539209856405
 30
0.0
 40
2.312992125999997
 50
90.0
 51
135.0000000058302021
  0
LINE
  5
43F0
  8
0
 10
586.1770409864964222
 20
-8.2817617949856412
 30
0.0
 11
588.3097260550985084
 21
-8.2817617949856412
 31
0.0
  0
LINE
  5
43F1
  8
0
 10
582.2257471237962818
 20
-10.8233322222856394
 30
0.0
 11
583.2480942692418466
 21
-11.8456793678424006
 31
0.0
  0
ARC
  5
43F2
  8
0
 10
583.2286070744800099
 20
-11.8651665626019795
 30
0.0
 40
0.0275590551231173
 50
315.9754418339438189
 51
44.9999999968782873
  0
ARC
  5
43F3
  8
0
 10
588.867826912546775
 20
-17.3155709469960009
 30
0.0
 40
7.8151259656759748
 50
135.9754418339437905
 51
137.2603867930781973
  0
ARC
  5
43F4
  8
0
 10
583.6247021992166992
 20
-12.4706387077147909
 30
0.0
 40
0.676237735513047
 50
137.2603867930781973
 51
154.5967377412588917
  0
ARC
  5
43F5
  8
0
 10
583.3616816923805573
 20
-12.3160823113777802
 30
0.0
 40
0.3733076486639164
 50
158.7105352085289951
 51
186.7382260685776032
  0
ARC
  5
43F6
  8
0
 10
584.0977160842435296
 20
-12.2165390298216501
 30
0.0
 40
1.116007635602555
 50
187.3796979040515112
 51
205.8229694090418889
  0
ARC
  5
43F7
  8
0
 10
587.2266386041949318
 20
-10.6826646558065192
 30
0.0
 40
4.6006668862255848
 50
206.0443305977559021
 51
216.3347881423854062
  0
ARC
  5
43F8
  8
0
 10
588.2955625562990463
 20
-9.8481292596128203
 30
0.0
 40
5.9563500325017458
 50
216.7093228254435076
 51
224.9834401523748113
  0
ARC
  5
43F9
  8
0
 10
583.9916477443815666
 20
-14.1395943897293606
 30
0.0
 40
0.1217078645058896
 50
15.8442380262552103
 51
41.6642880149213326
  0
ARC
  5
43FA
  8
0
 10
584.0112878387964201
 20
-14.1288310712856298
 30
0.0
 40
0.1000000000000117
 50
315.0000000000011937
 51
12.9827324252383303
  0
LINE
  5
43FB
  8
0
 10
584.0819985169149504
 20
-14.1995417494043004
 30
0.0
 11
583.9986534661800306
 21
-14.2828868002864002
 31
0.0
  0
ARC
  5
43FC
  8
0
 10
583.6115728102963658
 20
-13.8958516932334994
 30
0.0
 40
0.5473825063433155
 50
224.9966287772938074
 51
315.0033712732388835
  0
LINE
  5
43FD
  8
0
 10
583.2244921547542162
 20
-14.2828868006278
 30
0.0
 11
579.7885396905543303
 21
-10.8469343364277897
 31
0.0
  0
ARC
  5
43FE
  8
0
 10
580.1756203460963661
 20
-10.45985368088561
 30
0.0
 40
0.5474147128000153
 50
160.1367391857463929
 51
224.9999999999996874
  0
ARC
  5
43FF
  8
0
 10
580.175620345503944
 20
-10.4598536806716105
 30
0.0
 40
0.5474147121701892
 50
134.999999972003593
 51
160.1367391857463929
  0
LINE
  5
4400
  8
0
 10
579.7885396905963944
 20
-10.07277302538564
 30
0.0
 11
579.8718847417870847
 21
-9.9894279742763707
 31
0.0
  0
ARC
  5
4401
  8
0
 10
579.9425954199061835
 20
-10.0601386524644791
 30
0.0
 40
0.1000000000493685
 50
45.4611738308638493
 51
134.9999999720035078
  0
LINE
  5
4402
  8
0
 10
580.012734663297465
 20
-9.988861120616459
 30
0.0
 11
584.0825699294963442
 21
-14.0586872791856408
 31
0.0
  0
ARC
  5
4403
  8
0
 10
584.7763788203885724
 20
-5.1779307334551961
 30
0.0
 40
6.7703291534090004
 50
225.2829660338771021
 51
229.7599090795633003
  0
ARC
  5
4404
  8
0
 10
583.4813159520240333
 20
-6.708168649344965
 30
0.0
 40
4.765630695392141
 50
229.7605982720523912
 51
235.5273005205401091
  0
ARC
  5
4405
  8
0
 10
583.4426199680428908
 20
-6.7645291675294521
 30
0.0
 40
4.6972648619203037
 50
235.5273005205401091
 51
239.9930761687035954
  0
ARC
  5
4406
  8
0
 10
583.4453721297021502
 20
-6.7597636137515229
 30
0.0
 40
4.7027680334249471
 50
239.9930761687035954
 51
243.3077839483665059
  0
ARC
  5
4407
  8
0
 10
581.9266179719487582
 20
-9.7804924217873914
 30
0.0
 40
1.321730215921086
 50
243.3077839483665912
 51
252.7354363736135952
  0
ARC
  5
4408
  8
0
 10
581.8144892173704648
 20
-10.1412821809857903
 30
0.0
 40
0.9439179504430075
 50
252.7354363736135952
 51
265.4476442621113961
  0
ARC
  5
4409
  8
0
 10
581.7655561108233542
 20
-10.7558559185918696
 30
0.0
 40
0.3273992338808378
 50
265.4476442621113961
 51
299.8849378455406054
  0
ARC
  5
440A
  8
0
 10
581.5408291857889935
 20
-10.36480596464631
 30
0.0
 40
0.7784228001346013
 50
299.8849378455406054
 51
315.9449027620851211
  0
ARC
  5
440B
  8
0
 10
576.4712582213503538
 20
-4.9347741906707743
 30
0.0
 40
8.2062276824801383
 50
313.3097830873231828
 51
314.1489266695697893
  0
ARC
  5
440C
  8
0
 10
582.2062599286348359
 20
-10.8428194168628504
 30
0.0
 40
0.027559055276879
 50
44.9999991409822186
 51
134.0245580155589096
  0
ARC
  5
440D
  8
0
 10
582.2812373630254115
 20
-10.8256007209214697
 30
0.0
 40
0.0376838869178404
 50
227.9646037060790036
 51
237.5514170949020922
  0
ARC
  5
440E
  8
0
 10
583.2435689782096233
 20
-11.7922203650041801
 30
0.0
 40
0.0346990127478826
 50
211.5758904754449077
 51
220.7004357183863021
  0
ARC
  5
440F
  8
0
 10
583.3602501232877557
 20
-11.1154088748614495
 30
0.0
 40
0.0127644382107884
 50
269.3520592446150204
 51
312.7358447831605872
  0
ARC
  5
4410
  8
0
 10
583.3613186490415501
 20
-11.0890190718565194
 30
0.0
 40
0.0391722063363622
 50
246.1779832339049108
 51
268.2256922893756155
  0
ARC
  5
4411
  8
0
 10
583.3845954800367508
 20
-11.0370265551920692
 30
0.0
 40
0.0961370849729771
 50
228.9311643304471886
 51
246.0026834347702049
  0
ARC
  5
4412
  8
0
 10
583.592408917848843
 20
-10.7985438091566106
 30
0.0
 40
0.4124604086338456
 50
226.356470234092086
 51
228.9311643304469897
  0
LINE
  5
4413
  8
0
 10
583.3077413133962636
 20
-11.09701984448564
 30
0.0
 11
582.9744066466964796
 21
-10.7636851777856393
 31
0.0
  0
ARC
  5
4414
  8
0
 10
583.0926562927197665
 20
-10.6437365669940398
 30
0.0
 40
0.1684358869584983
 50
214.4954932544063126
 51
225.4086589943007937
  0
ARC
  5
4415
  8
0
 10
583.0210392931164733
 20
-10.6939901422724404
 30
0.0
 40
0.080955116093112
 50
201.3563436165599114
 51
213.8883381687722931
  0
ARC
  5
4416
  8
0
 10
582.9695920156693774
 20
-10.7132863576075597
 30
0.0
 40
0.026024712576686
 50
185.4631374057761093
 51
203.039044241199008
  0
ARC
  5
4417
  8
0
 10
582.9589378243276769
 20
-10.7122128021507397
 30
0.0
 40
0.0156602762901426
 50
141.7339421255742877
 51
193.1068536103250892
  0
LINE
  5
4418
  8
0
 10
582.9466422618962724
 20
-10.7025141734856408
 30
0.0
 11
583.0357265806964051
 21
-10.6134298546856396
 31
0.0
  0
ARC
  5
4419
  8
0
 10
583.0520545826295802
 20
-10.6351530956095708
 30
0.0
 40
0.027175408798528
 50
101.989455729812903
 51
126.929895486450107
  0
ARC
  5
441A
  8
0
 10
583.0477473443010012
 20
-10.6350749827933999
 30
0.0
 40
0.0265382361534872
 50
48.437340174008817
 51
92.8898560218435563
  0
LINE
  5
441B
  8
0
 10
583.3689123174964379
 20
-11.1247842294856394
 30
0.0
 11
583.4579966365963628
 21
-11.0356999103856399
 31
0.0
  0
ARC
  5
441C
  8
0
 10
583.4447457745210386
 20
-11.0236753272289505
 30
0.0
 40
0.0178934609797355
 50
317.7776189784125904
 51
9.8560105868497772
  0
ARC
  5
441D
  8
0
 10
583.4222682048514343
 20
-11.0285379985600098
 30
0.0
 40
0.0408825270342812
 50
11.1782171806800701
 51
32.3146830368354827
  0
ARC
  5
441E
  8
0
 10
583.0370935614798782
 20
-11.0422185436405496
 30
0.0
 40
0.5202049005712841
 50
353.2306650920550055
 51
5.6352682470455946
  0
ARC
  5
441F
  8
0
 10
583.6244566505353077
 20
-10.9843709944056496
 30
0.0
 40
0.070000000038459
 50
67.540310417149044
 51
185.5465201250214022
  0
ARC
  5
4420
  8
0
 10
583.7390668224290948
 20
-10.7071257710920502
 30
0.0
 40
0.2300006755470362
 50
247.5403344129582877
 51
279.9031288999539129
  0
ARC
  5
4421
  8
0
 10
583.7767933066735395
 20
-10.9236371147051603
 30
0.0
 40
0.0102273075148166
 50
280.3058812925455072
 51
314.5978365504503245
  0
LINE
  5
4422
  8
0
 10
583.783974166896428
 20
-10.9309194951856394
 30
0.0
 11
584.2814420609845456
 21
-10.4334516011737701
 31
0.0
  0
ARC
  5
4423
  8
0
 10
584.2885131288721823
 20
-10.4405226690990798
 30
0.0
 40
0.0100000001338108
 50
89.9963421971231412
 51
134.9999998475437053
  0
LINE
  5
4424
  8
0
 10
584.2885137672792553
 20
-10.4305226689856401
 30
0.0
 11
584.3367973999962715
 21
-10.4305226689856401
 31
0.0
  0
ARC
  5
4425
  8
0
 10
584.3367901579698582
 20
-10.4205051852444193
 30
0.0
 40
0.0100174863589884
 50
270.0414213282037963
 51
314.9585789039322776
  0
LINE
  5
4426
  8
0
 10
584.3438684677963693
 20
-10.4275937367856404
 30
0.0
 11
584.4187753757088331
 21
-10.3527950562277091
 31
0.0
  0
ARC
  5
4427
  8
0
 10
584.4046535116228824
 20
-10.3386527590007002
 30
0.0
 40
0.0199857853515667
 50
314.9585789039250017
 51
45.2602237040248099
  0
ARC
  5
4428
  8
0
 10
588.96965503931699
 20
-5.0310435087262677
 30
0.0
 40
10.8379614356153393
 50
213.0857057493423952
 51
215.7794167559009111
  0
LINE
  5
4429
  8
0
 10
580.0904496311446792
 20
-11.2456327469114203
 30
0.0
 11
580.0795378160864857
 21
-11.2544127735095998
 31
0.0
  0
ARC
  5
442A
  8
0
 10
580.0858067601616312
 20
-11.2622038157795306
 30
0.0
 40
0.0099999999734351
 50
128.8213675271468901
 51
215.8213678684865897
  0
LINE
  5
442B
  8
0
 10
580.0776983040964296
 20
-11.2680564168856403
 30
0.0
 11
580.1309690942547377
 21
-11.3418601587991805
 31
0.0
  0
ARC
  5
442C
  8
0
 10
580.1390775504303292
 20
-11.3360075576134207
 30
0.0
 40
0.0100000001095355
 50
215.8213678684882098
 51
302.8213654710255014
  0
LINE
  5
442D
  8
0
 10
580.1444977666702698
 20
-11.3444112031379802
 30
0.0
 11
580.1553827923155495
 21
-11.3373905366184804
 31
0.0
  0
ARC
  5
442E
  8
0
 10
579.7787054153044437
 20
-11.7156083279597301
 30
0.0
 40
0.5547583069899642
 50
28.6723874341546114
 51
43.1638993908226567
  0
ARC
  5
442F
  8
0
 10
580.241428314032305
 20
-11.32067124450049
 30
0.0
 40
0.0600978780615184
 50
194.8808944534451086
 51
208.3441940456717134
  0
LINE
  5
4430
  8
0
 10
580.1924106893117141
 20
-11.3460075630351191
 30
0.0
 11
580.1802390407061694
 21
-11.3560464727357502
 31
0.0
  0
ARC
  5
4431
  8
0
 10
580.1868443172438674
 20
-11.3640550222053598
 30
0.0
 40
0.0103810665514682
 50
129.5150668164015997
 51
200.1668935207227094
  0
ARC
  5
4432
  8
0
 10
580.5604709352921873
 20
-11.1463222377455295
 30
0.0
 40
0.4426650979327961
 50
209.9968867161406934
 51
222.0483641910884955
  0
ARC
  5
4433
  8
0
 10
580.240444084112255
 20
-11.4355985136915201
 30
0.0
 40
0.0112844419568284
 50
219.6599479586348878
 51
301.0662547819193833
  0
LINE
  5
4434
  8
0
 10
580.2462671825962843
 20
-11.4452644411856408
 30
0.0
 11
580.2585180143314574
 21
-11.43715429407019
 31
0.0
  0
ARC
  5
4435
  8
0
 10
580.3148240459814815
 20
-11.38495102282657
 30
0.0
 40
0.0812229279139346
 50
222.3204237708154949
 51
232.552627671807187
  0
ARC
  5
4436
  8
0
 10
580.0131863024123504
 20
-11.5508200475352591
 30
0.0
 40
0.2419926137126446
 50
32.1547358021836587
 51
41.6437200863481323
  0
ARC
  5
4437
  8
0
 10
580.2840247868393817
 20
-11.3474744860228807
 30
0.0
 40
0.099547775040214
 50
205.2998471281877073
 51
228.4986039306683097
  0
ARC
  5
4438
  8
0
 10
588.9751820173208898
 20
-5.0378529857554399
 30
0.0
 40
10.8384530539339092
 50
216.2227935153667886
 51
217.7165124349147902
  0
LINE
  5
4439
  8
0
 10
580.4009633606351599
 20
-11.6676975563069192
 30
0.0
 11
580.3930778378013429
 21
-11.67318307864827
 31
0.0
  0
ARC
  5
443A
  8
0
 10
580.3873672341100018
 20
-11.6649739979079001
 30
0.0
 40
0.0100000000560585
 50
217.8242020197170064
 51
304.8242014402379141
  0
LINE
  5
443B
  8
0
 10
580.3794682735964443
 20
-11.6711064055856397
 30
0.0
 11
580.3236506646665021
 21
-11.5992095076509205
 31
0.0
  0
ARC
  5
443C
  8
0
 10
580.3315496250792194
 20
-11.5930771000514596
 30
0.0
 40
0.009999999928397
 50
130.8241990293645074
 51
217.8242020197174895
  0
LINE
  5
443D
  8
0
 10
580.3250122224795859
 20
-11.5855099099640295
 30
0.0
 11
580.332885842065366
 21
-11.5787077785846808
 31
0.0
  0
LINE
  5
443E
  8
0
 10
580.4130834750964141
 20
-11.6570092621856407
 30
0.0
 11
580.4038808973321011
 21
-11.6651135227745506
 31
0.0
  0
ARC
  5
443F
  8
0
 10
580.4105047256218768
 20
-11.6726350349797396
 30
0.0
 40
0.0100223872936959
 50
131.3687958543289085
 51
154.5697062109992999
  0
ARC
  5
4440
  8
0
 10
580.4109332089685722
 20
-11.6728387715316906
 30
0.0
 40
0.0104968412546511
 50
154.569706210998504
 51
205.4302937889997906
  0
ARC
  5
4441
  8
0
 10
580.8747689110003876
 20
-11.3658211528211499
 30
0.0
 40
0.5666351874736894
 50
213.3519700457048032
 51
222.6579423726030029
  0
ARC
  5
4442
  8
0
 10
580.4692375706340499
 20
-11.7388254616040708
 30
0.0
 40
0.0156547949911021
 50
224.430520070274298
 51
251.5273452936872047
  0
ARC
  5
4443
  8
0
 10
580.4671244668654708
 20
-11.7451508941456506
 30
0.0
 40
0.0089857392577018
 50
251.5273452936943102
 51
308.9392035846075828
  0
LINE
  5
4444
  8
0
 10
580.4727719627370561
 20
-11.7521401215984707
 30
0.0
 11
580.4822066336752187
 21
-11.7451008967904702
 31
0.0
  0
ARC
  5
4445
  8
0
 10
580.541680110650077
 20
-11.6918326763207201
 30
0.0
 40
0.0843291243094574
 50
221.5763242292584891
 51
231.8478285537480019
  0
ARC
  5
4446
  8
0
 10
580.4355787197685004
 20
-11.7800841744824094
 30
0.0
 40
0.0582922985766791
 50
22.1067784921516797
 51
36.8796026606363228
  0
ARC
  5
4447
  8
0
 10
587.9792624163850405
 20
-5.7911956064100716
 30
0.0
 40
9.5736530966962672
 50
217.785263304109094
 51
218.455401083548395
  0
ARC
  5
4448
  8
0
 10
580.6581890650212472
 20
-11.5353126290955306
 30
0.0
 40
0.2783597043113613
 50
203.828636275257395
 51
206.6634151539844879
  0
ARC
  5
4449
  8
0
 10
580.3762667219663172
 20
-11.6854412624952406
 30
0.0
 40
0.046517222108014
 50
37.677370588218011
 51
54.0784014715769885
  0
ARC
  5
444A
  8
0
 10
580.1300468687416014
 20
-11.9556460248800196
 30
0.0
 40
0.3865394367171521
 50
35.6759607563223113
 51
41.7173092353014994
  0
ARC
  5
444B
  8
0
 10
580.5415913405338415
 20
-11.6259764313182501
 30
0.0
 40
0.1427635301686284
 50
210.4937967968818953
 51
226.8994700002118918
  0
ARC
  5
444C
  8
0
 10
589.1961204218122248
 20
-4.8753060694722432
 30
0.0
 40
11.1127429719206603
 50
218.2429613035930061
 51
222.3386873016399079
  0
LINE
  5
444D
  8
0
 10
580.5874586507154618
 20
-11.9026810324886707
 30
0.0
 11
580.5819081594044064
 21
-11.9078257108951995
 31
0.0
  0
ARC
  5
444E
  8
0
 10
580.5887060339772461
 20
-11.9151598027021901
 30
0.0
 40
0.0100000000671567
 50
132.8270360824122918
 51
219.8270358528154986
  0
LINE
  5
444F
  8
0
 10
580.5810262199963745
 20
-11.9215645242856407
 30
0.0
 11
580.6393224492663876
 21
-11.9914667348267301
 31
0.0
  0
ARC
  5
4450
  8
0
 10
580.6470022632428254
 20
-11.9850620132471093
 30
0.0
 40
0.0100000000611888
 50
219.8270358528135091
 51
306.827035355854207
  0
LINE
  5
4451
  8
0
 10
580.6529962768962605
 20
-11.9930664995856393
 30
0.0
 11
580.6585637199207213
 21
-11.9888974213847206
 31
0.0
  0
LINE
  5
4452
  8
0
 10
580.4811006275560885
 20
-11.6330673388029702
 30
0.0
 11
580.4670040815964285
 21
-11.6455417443856408
 31
0.0
  0
ARC
  5
4453
  8
0
 10
580.4745614134051266
 20
-11.6540818126452592
 30
0.0
 40
0.0114037726190198
 50
131.5064634891805042
 51
207.4586690100387045
  0
ARC
  5
4454
  8
0
 10
580.6802580070523163
 20
-11.5471914644573204
 30
0.0
 40
0.2432154098890022
 50
207.4586690100383919
 51
229.1989631436613877
  0
ARC
  5
4455
  8
0
 10
580.5294617765180192
 20
-11.7218841876395903
 30
0.0
 40
0.0124405181087067
 50
229.1989631436601087
 51
302.0816774656461234
  0
LINE
  5
4456
  8
0
 10
580.5360692796964486
 20
-11.7324249367856392
 30
0.0
 11
580.5507909852226476
 21
-11.7219385343989497
 31
0.0
  0
ARC
  5
4457
  8
0
 10
580.568055462806683
 20
-11.6991034600879793
 30
0.0
 40
0.0385104575856114
 50
228.3400442943662085
 51
248.6987417015832875
  0
ARC
  5
4458
  8
0
 10
580.4246371404924503
 20
-11.7605417446656197
 30
0.0
 40
0.1319280121244498
 50
11.1706872014845509
 51
17.0141662649573284
  0
ARC
  5
4459
  8
0
 10
580.1533496018358846
 20
-11.9618409497720108
 30
0.0
 40
0.4642335857412703
 50
31.1158991087770893
 51
45.0892423045573665
  0
ARC
  5
445A
  8
0
 10
580.7214579784606485
 20
-11.23000849176365
 30
0.0
 40
0.4692846580814301
 50
237.4631052703807939
 51
239.1909751483754007
  0
ARC
  5
445B
  8
0
 10
580.5300609090376156
 20
-11.6169802257870902
 30
0.0
 40
0.0616153149767806
 50
188.0763447030535929
 51
202.1718608759335893
  0
ARC
  5
445C
  8
0
 10
580.4113225108569623
 20
-11.7613016806669997
 30
0.0
 40
0.1086453711701963
 50
27.6709819972728397
 51
49.7849312067080803
  0
ARC
  5
445D
  8
0
 10
580.5534176016534502
 20
-11.6473481679073601
 30
0.0
 40
0.0783372994280115
 50
203.3024601398419122
 51
234.153453064140308
  0
LINE
  5
445E
  8
0
 10
580.6429279361299223
 20
-11.8776332588974292
 30
0.0
 11
580.6288313901701486
 21
-11.8901076644800998
 31
0.0
  0
ARC
  5
445F
  8
0
 10
580.636388721979074
 20
-11.89864773273972
 30
0.0
 40
0.0114037726190198
 50
131.5064634891805042
 51
207.4586690100387045
  0
ARC
  5
4460
  8
0
 10
580.8420853156261501
 20
-11.7917573845517705
 30
0.0
 40
0.2432154098890022
 50
207.4586690100383919
 51
229.1989631436613877
  0
ARC
  5
4461
  8
0
 10
580.6912890850918529
 20
-11.9664501077340493
 30
0.0
 40
0.0124405181087067
 50
229.1989631436601087
 51
302.0816774656461234
  0
LINE
  5
4462
  8
0
 10
580.6978965882701686
 20
-11.9769908568800894
 30
0.0
 11
580.712618293796595
 21
-11.9665044544934105
 31
0.0
  0
ARC
  5
4463
  8
0
 10
580.7298827713807441
 20
-11.9436693801824294
 30
0.0
 40
0.0385104575856114
 50
228.3400442943662085
 51
248.6987417015832875
  0
ARC
  5
4464
  8
0
 10
580.5864644490663977
 20
-12.0051076647600699
 30
0.0
 40
0.1319280121244498
 50
11.1706872014845509
 51
17.0141662649573284
  0
ARC
  5
4465
  8
0
 10
580.3151769104098321
 20
-12.2064068698664592
 30
0.0
 40
0.4642335857412703
 50
31.1158991087770893
 51
45.0892423045573665
  0
ARC
  5
4466
  8
0
 10
580.8832852870347097
 20
-11.4745744118581001
 30
0.0
 40
0.4692846580814301
 50
237.4631052703807939
 51
239.1909751483754007
  0
ARC
  5
4467
  8
0
 10
580.6918882176114494
 20
-11.8615461458815403
 30
0.0
 40
0.0616153149767806
 50
188.0763447030535929
 51
202.1718608759335893
  0
ARC
  5
4468
  8
0
 10
580.5731498194310234
 20
-12.0058676007614604
 30
0.0
 40
0.1086453711701963
 50
27.6709819972728397
 51
49.7849312067080803
  0
ARC
  5
4469
  8
0
 10
580.7152449102273977
 20
-11.8919140880018208
 30
0.0
 40
0.0783372994280115
 50
203.3024601398419122
 51
234.153453064140308
  0
LINE
  5
446A
  8
0
 10
580.9125118213805763
 20
-12.0634634577819995
 30
0.0
 11
580.8984152754210299
 21
-12.0759378633646701
 31
0.0
  0
ARC
  5
446B
  8
0
 10
580.9059726072297281
 20
-12.0844779316242903
 30
0.0
 40
0.0114037726190198
 50
131.5064634891805042
 51
207.4586690100387045
  0
ARC
  5
446C
  8
0
 10
581.1116692008769178
 20
-11.9775875834363408
 30
0.0
 40
0.2432154098890022
 50
207.4586690100383919
 51
229.1989631436613877
  0
ARC
  5
446D
  8
0
 10
580.9608729703426206
 20
-12.1522803066186196
 30
0.0
 40
0.0124405181087067
 50
229.1989631436601087
 51
302.0816774656461234
  0
LINE
  5
446E
  8
0
 10
580.96748047352105
 20
-12.1628210557646703
 30
0.0
 11
580.982202179047249
 21
-12.1523346533779808
 31
0.0
  0
ARC
  5
446F
  8
0
 10
580.9994666566315118
 20
-12.1294995790670104
 30
0.0
 40
0.0385104575856114
 50
228.3400442943662085
 51
248.6987417015832875
  0
ARC
  5
4470
  8
0
 10
580.8560483343170517
 20
-12.1909378636446508
 30
0.0
 40
0.1319280121244498
 50
11.1706872014845509
 51
17.0141662649573284
  0
ARC
  5
4471
  8
0
 10
580.5847607956604861
 20
-12.3922370687510401
 30
0.0
 40
0.4642335857412703
 50
31.1158991087770893
 51
45.0892423045573665
  0
ARC
  5
4472
  8
0
 10
581.1528691722854774
 20
-11.6604046107426704
 30
0.0
 40
0.4692846580814301
 50
237.4631052703807939
 51
239.1909751483754007
  0
ARC
  5
4473
  8
0
 10
580.9614721028623308
 20
-12.0473763447661195
 30
0.0
 40
0.0616153149767806
 50
188.0763447030535929
 51
202.1718608759335893
  0
ARC
  5
4474
  8
0
 10
580.8427337046816774
 20
-12.1916977996460307
 30
0.0
 40
0.1086453711701963
 50
27.6709819972728397
 51
49.7849312067080803
  0
ARC
  5
4475
  8
0
 10
580.9848287954780517
 20
-12.0777442868863893
 30
0.0
 40
0.0783372994280115
 50
203.3024601398419122
 51
234.153453064140308
  0
LINE
  5
4476
  8
0
 10
580.9816895987299858
 20
-12.2152763590974303
 30
0.0
 11
580.9675930527703258
 21
-12.2277507646800991
 31
0.0
  0
ARC
  5
4477
  8
0
 10
580.9751503845790239
 20
-12.2362908329397193
 30
0.0
 40
0.0114037726190198
 50
131.5064634891805042
 51
207.4586690100387045
  0
ARC
  5
4478
  8
0
 10
581.1808469782262137
 20
-12.1294004847517698
 30
0.0
 40
0.2432154098890022
 50
207.4586690100383919
 51
229.1989631436613877
  0
ARC
  5
4479
  8
0
 10
581.0300507476918028
 20
-12.3040932079340504
 30
0.0
 40
0.0124405181087067
 50
229.1989631436601087
 51
302.0816774656461234
  0
LINE
  5
447A
  8
0
 10
581.0366582508703459
 20
-12.3146339570800993
 30
0.0
 11
581.0513799563965449
 21
-12.3041475546934098
 31
0.0
  0
ARC
  5
447B
  8
0
 10
581.068644433980694
 20
-12.2813124803824305
 30
0.0
 40
0.0385104575856114
 50
228.3400442943662085
 51
248.6987417015832875
  0
ARC
  5
447C
  8
0
 10
580.9252261116663476
 20
-12.3427507649600692
 30
0.0
 40
0.1319280121244498
 50
11.1706872014845509
 51
17.0141662649573284
  0
ARC
  5
447D
  8
0
 10
580.6539385730098957
 20
-12.5440499700664692
 30
0.0
 40
0.4642335857412703
 50
31.1158991087770893
 51
45.0892423045573665
  0
ARC
  5
447E
  8
0
 10
581.2220469496345459
 20
-11.8122175120580994
 30
0.0
 40
0.4692846580814301
 50
237.4631052703807939
 51
239.1909751483754007
  0
ARC
  5
447F
  8
0
 10
581.0306498802113992
 20
-12.1991892460815397
 30
0.0
 40
0.0616153149767806
 50
188.0763447030535929
 51
202.1718608759335893
  0
ARC
  5
4480
  8
0
 10
580.9119114820308596
 20
-12.3435107009614597
 30
0.0
 40
0.1086453711701963
 50
27.6709819972728397
 51
49.7849312067080803
  0
ARC
  5
4481
  8
0
 10
581.0540065728273476
 20
-12.2295571882018201
 30
0.0
 40
0.0783372994280115
 50
203.3024601398419122
 51
234.153453064140308
  0
ARC
  5
4482
  8
0
 10
580.4547966663898251
 20
-12.5052493952900292
 30
0.0
 40
0.5204870212295269
 50
33.387540653905738
 51
48.8452083019624723
  0
ARC
  5
4483
  8
0
 10
580.8582388863209189
 20
-12.0928205073207007
 30
0.0
 40
0.0642807381554092
 50
198.6313799887639107
 51
211.6079224160972956
  0
LINE
  5
4484
  8
0
 10
580.8075568955464405
 20
-12.1225393745252905
 30
0.0
 11
580.8009763368962695
 21
-12.1289732007856408
 31
0.0
  0
ARC
  5
4485
  8
0
 10
580.8082893908551796
 20
-12.1364530391492096
 30
0.0
 40
0.0104608192867006
 50
134.3540385887137916
 51
203.3339045781943071
  0
ARC
  5
4486
  8
0
 10
581.1542468366625371
 20
-11.8953204860927393
 30
0.0
 40
0.4319550115479564
 50
214.5988746190230927
 51
226.8958879065158101
  0
ARC
  5
4487
  8
0
 10
580.8677004893683034
 20
-12.2019065468924399
 30
0.0
 40
0.0123111966080702
 50
225.5600844052553953
 51
302.3311094528622789
  0
LINE
  5
4488
  8
0
 10
580.8742846553964227
 20
-12.21230915808564
 30
0.0
 11
580.881230012478909
 21
-12.2068179280957896
 31
0.0
  0
ARC
  5
4489
  8
0
 10
580.931420952004828
 20
-12.1495702045060501
 30
0.0
 40
0.0810138229019067
 50
228.1234943572895872
 51
238.7444503719763986
  0
ARC
  5
448A
  8
0
 10
580.6337416919394627
 20
-12.3523748971319502
 30
0.0
 40
0.2649809631680062
 50
37.1708779605889816
 51
46.1133657801051697
  0
ARC
  5
448B
  8
0
 10
580.9222811414128955
 20
-12.0958180046752002
 30
0.0
 40
0.1236672285000343
 50
212.0262607123017915
 51
231.2579830283922888
  0
LINE
  5
448C
  8
0
 10
580.8539025726424825
 20
-12.2169991791689796
 30
0.0
 11
580.8499117511240684
 21
-12.2209663705796601
 31
0.0
  0
ARC
  5
448D
  8
0
 10
580.8569617913752836
 20
-12.22805840356434
 30
0.0
 40
0.0099999999699625
 50
134.8298694054691111
 51
221.8298704297573067
  0
LINE
  5
448E
  8
0
 10
580.8495105072962588
 20
-12.2347276137856404
 30
0.0
 11
580.9102141314825758
 21
-12.3025497296609299
 31
0.0
  0
ARC
  5
448F
  8
0
 10
580.9176654157488429
 20
-12.2958805192719201
 30
0.0
 40
0.0100000002214395
 50
221.829870429756312
 51
308.8298643023936734
  0
LINE
  5
4490
  8
0
 10
580.9239355152964208
 20
-12.3036706319856393
 30
0.0
 11
580.9280269276663375
 21
-12.3003775393446908
 31
0.0
  0
ARC
  5
4491
  8
0
 10
580.5694471275860451
 20
-12.8134991942973393
 30
0.0
 40
0.6242575986059496
 50
36.1449131606688709
 51
49.0171981060951083
  0
ARC
  5
4492
  8
0
 10
581.3318947380889767
 20
-12.0715557301296705
 30
0.0
 40
0.4543354851927988
 50
233.4681861405306051
 51
235.346253842223291
  0
LINE
  5
4493
  8
0
 10
581.0649092288072097
 20
-12.4337428833940606
 30
0.0
 11
581.0614428891366288
 21
-12.4366263130360206
 31
0.0
  0
LINE
  5
4494
  8
0
 10
581.0614428891366288
 20
-12.4366263130360206
 30
0.0
 11
581.0596473715962702
 21
-12.4381198909856394
 31
0.0
  0
ARC
  5
4495
  8
0
 10
581.0531071902696567
 20
-12.4302575559190096
 30
0.0
 40
0.0102269391553544
 50
232.4373736668779031
 51
309.7549374562801177
  0
ARC
  5
4496
  8
0
 10
581.462608599758255
 20
-11.9919414225405898
 30
0.0
 40
0.6100244755266607
 50
218.0895446934596862
 51
227.0384705703339137
  0
ARC
  5
4497
  8
0
 10
580.9899672704425484
 20
-12.3634623960194201
 30
0.0
 40
0.0088842467824822
 50
129.6781759173495914
 51
212.6906415969110071
  0
LINE
  5
4498
  8
0
 10
580.9842949035963784
 20
-12.3566246993856392
 30
0.0
 11
580.989279929828399
 21
-12.3515057229379703
 31
0.0
  0
ARC
  5
4499
  8
0
 10
581.2027398949780945
 20
-12.2087599616967708
 30
0.0
 40
0.2606567802206964
 50
210.8040145339155913
 51
213.9519721459381003
  0
ARC
  5
449A
  8
0
 10
584.6228501242411539
 20
-9.0664893267800153
 30
0.0
 40
4.914032419824311
 50
222.5341646044637969
 51
223.002596074726597
  0
ARC
  5
449B
  8
0
 10
581.117172779143857
 20
-12.3091903412011607
 30
0.0
 40
0.1399941484982146
 50
214.5185565267499044
 51
231.0182041524363115
  0
LINE
  5
449C
  8
0
 10
581.3061684078963935
 20
-12.6914579619856394
 30
0.0
 11
581.0550153503213551
 21
-12.4403049043106897
 31
0.0
  0
LINE
  5
449D
  8
0
 10
581.0183547313392864
 20
-12.4099946066444602
 30
0.0
 11
581.0076104671479698
 21
-12.4207388708373294
 31
0.0
  0
ARC
  5
449E
  8
0
 10
581.0632881664769229
 20
-12.4764165701574505
 30
0.0
 40
0.0787401575063621
 50
135.0000000044574051
 51
224.9998591460274895
  0
LINE
  5
449F
  8
0
 10
581.0076103302765205
 20
-12.5320941326055895
 30
0.0
 11
581.5393310514576797
 21
-13.0638174681211101
 31
0.0
  0
ARC
  5
44A0
  8
0
 10
581.5950087507777653
 20
-13.0081400425525509
 30
0.0
 40
0.0787399639289305
 50
224.9998591460272905
 51
315.0014860639374774
  0
LINE
  5
44A1
  8
0
 10
581.6506877572963958
 20
-13.06381616088564
 30
0.0
 11
581.6614273485359945
 21
-13.0530760125323795
 31
0.0
  0
ARC
  5
44A2
  8
0
 10
581.3068026762429099
 20
-12.7627879318590391
 30
0.0
 40
0.2151155416828295
 50
25.6506405745048482
 51
63.5991821279229725
  0
LINE
  5
44A3
  8
0
 10
581.4148260174572442
 20
-12.5767619819854506
 30
0.0
 11
581.4027238245632816
 21
-12.5902213366038307
 31
0.0
  0
ARC
  5
44A4
  8
0
 10
581.4116738218434648
 20
-12.5982688690864908
 30
0.0
 40
0.012035997273859
 50
138.039201562916702
 51
192.0520848001885952
  0
ARC
  5
44A5
  8
0
 10
581.4193785566883435
 20
-12.5966238552809209
 30
0.0
 40
0.0199143860336446
 50
192.0520848001881973
 51
209.7553679089926106
  0
ARC
  5
44A6
  8
0
 10
581.5797346072789651
 20
-12.4916142003234203
 30
0.0
 40
0.2115610883605417
 50
212.8930795085859131
 51
237.1900765766735049
  0
ARC
  5
44A7
  8
0
 10
581.4725795415542962
 20
-12.65629671267925
 30
0.0
 40
0.0151101955264975
 50
240.3277881762703032
 51
304.8029717830061145
  0
LINE
  5
44A8
  8
0
 10
581.4812037786964538
 20
-12.6687039904856409
 30
0.0
 11
581.4941463491950344
 21
-12.6570663896911899
 31
0.0
  0
ARC
  5
44A9
  8
0
 10
581.5000482362200955
 20
-12.6461966623961306
 30
0.0
 40
0.0234810538714389
 50
232.1075957167805086
 51
271.6360672807534229
  0
ARC
  5
44AA
  8
0
 10
581.3676754633635255
 20
-12.7046967938875106
 30
0.0
 40
0.0996224460407506
 50
32.3660265330099008
 51
58.1383644885310034
  0
ARC
  5
44AB
  8
0
 10
581.4807344846744854
 20
-12.5906380751317695
 30
0.0
 40
0.0672599482509971
 50
205.964019380129713
 51
244.540371641413401
  0
ARC
  5
44AC
  8
0
 10
581.4309151808876095
 20
-12.5680342699245102
 30
0.0
 40
0.0285372466318923
 50
184.166764020186406
 51
215.6381868071983945
  0
ARC
  5
44AD
  8
0
 10
581.2648153169539
 20
-12.8059875438101791
 30
0.0
 40
0.2151155416828295
 50
25.6506405745048482
 51
63.5991821279229725
  0
LINE
  5
44AE
  8
0
 10
581.372838658168348
 20
-12.6199615939365906
 30
0.0
 11
581.360736465274158
 21
-12.6334209485549707
 31
0.0
  0
ARC
  5
44AF
  8
0
 10
581.3696864625544549
 20
-12.6414684810376396
 30
0.0
 40
0.012035997273859
 50
138.039201562916702
 51
192.0520848001885952
  0
ARC
  5
44B0
  8
0
 10
581.3773911973994473
 20
-12.6398234672320697
 30
0.0
 40
0.0199143860336446
 50
192.0520848001881973
 51
209.7553679089926106
  0
ARC
  5
44B1
  8
0
 10
581.5377472479899552
 20
-12.5348138122745603
 30
0.0
 40
0.2115610883605417
 50
212.8930795085859131
 51
237.1900765766735049
  0
ARC
  5
44B2
  8
0
 10
581.4305921822651726
 20
-12.69949632463039
 30
0.0
 40
0.0151101955264975
 50
240.3277881762703032
 51
304.8029717830061145
  0
LINE
  5
44B3
  8
0
 10
581.4392164194073302
 20
-12.7119036024367809
 30
0.0
 11
581.4521589899059109
 21
-12.7002660016423299
 31
0.0
  0
ARC
  5
44B4
  8
0
 10
581.458060876930972
 20
-12.6893962743472706
 30
0.0
 40
0.0234810538714389
 50
232.1075957167805086
 51
271.6360672807534229
  0
ARC
  5
44B5
  8
0
 10
581.3256881040745156
 20
-12.7478964058386506
 30
0.0
 40
0.0996224460407506
 50
32.3660265330099008
 51
58.1383644885310034
  0
ARC
  5
44B6
  8
0
 10
581.4387471253853619
 20
-12.6338376870829094
 30
0.0
 40
0.0672599482509971
 50
205.9640193801295993
 51
244.540371641413401
  0
ARC
  5
44B7
  8
0
 10
581.3889278215984859
 20
-12.6112338818756502
 30
0.0
 40
0.0285372466318923
 50
184.1667640201862923
 51
215.6381868071983945
  0
LINE
  5
44B8
  8
0
 10
581.3141136868953254
 20
-12.6782555871891507
 30
0.0
 11
581.3087678198736512
 21
-12.68417486831747
 31
0.0
  0
ARC
  5
44B9
  8
0
 10
581.3162839223474521
 20
-12.6909628690008809
 30
0.0
 40
0.010127623100829
 50
137.9139321590419911
 51
182.8020443464538118
  0
ARC
  5
44BA
  8
0
 10
581.317822683753775
 20
-12.6908875559773797
 30
0.0
 40
0.0116682264623694
 50
182.8020443464542097
 51
214.3125998384124955
  0
ARC
  5
44BB
  8
0
 10
581.6862340161163729
 20
-12.3846974442227609
 30
0.0
 40
0.4906573112413452
 50
219.601642844323095
 51
230.5272880599387122
  0
ARC
  5
44BC
  8
0
 10
581.3802729800188445
 20
-12.7546813331073405
 30
0.0
 40
0.0105990337105676
 50
235.8163310658497949
 51
311.1781101034083008
  0
LINE
  5
44BD
  8
0
 10
581.3872514044962827
 20
-12.7626588707856392
 30
0.0
 11
581.3932526524433797
 21
-12.7574092239324504
 31
0.0
  0
ARC
  5
44BE
  8
0
 10
581.4259804218928593
 20
-12.7222024879953306
 30
0.0
 40
0.0530013526725989
 50
226.5379740579323027
 51
242.1559722302413888
  0
ARC
  5
44BF
  8
0
 10
581.3529585308644982
 20
-12.7935200417458805
 30
0.0
 40
0.0541073691558188
 50
26.8673776185668807
 51
41.8660851539311309
  0
ARC
  5
44C0
  8
0
 10
581.6192300658274235
 20
-12.2310334822804592
 30
0.0
 40
0.5413904467309606
 50
234.181540900208887
 51
235.6963155558362075
  0
ARC
  5
44C1
  8
0
 10
580.6785984257259088
 20
-13.3927920219612702
 30
0.0
 40
0.9562645888016837
 50
41.6395668313323597
 51
48.3498123619705993
  0
ARC
  5
44C2
  8
0
 10
581.3657255910568438
 20
-12.6367071227738901
 30
0.0
 40
0.0715595118460441
 50
207.7554469871327001
 51
219.5090717379684122
  0
ARC
  5
44C3
  8
0
 10
581.0978774498621533
 20
-12.98010100426505
 30
0.0
 40
0.3500355102828225
 50
42.5489801054315606
 51
49.0286186565196402
  0
ARC
  5
44C4
  8
0
 10
581.4174217839970424
 20
-12.6516348512557695
 30
0.0
 40
0.110564129279477
 50
215.4818044525455036
 51
236.0957943094126108
  0
LINE
  5
44C5
  8
0
 10
581.3363089766061194
 20
-12.6596965712778395
 30
0.0
 11
581.3309631095845589
 21
-12.6656158524061606
 31
0.0
  0
ARC
  5
44C6
  8
0
 10
581.338479212058246
 20
-12.6724038530895697
 30
0.0
 40
0.010127623100829
 50
137.9139321590419911
 51
182.8020443464538118
  0
ARC
  5
44C7
  8
0
 10
581.3400179734647963
 20
-12.6723285400660703
 30
0.0
 40
0.0116682264623694
 50
182.8020443464542097
 51
214.3125998384124955
  0
ARC
  5
44C8
  8
0
 10
581.7084293058272806
 20
-12.3661384283114497
 30
0.0
 40
0.4906573112413452
 50
219.601642844323095
 51
230.5272880599387122
  0
ARC
  5
44C9
  8
0
 10
581.4024682697297521
 20
-12.7361223171960294
 30
0.0
 40
0.0105990337105676
 50
235.8163310658497949
 51
311.1781101034083008
  0
LINE
  5
44CA
  8
0
 10
581.4094466942073041
 20
-12.7440998548743298
 30
0.0
 11
581.4154479421541737
 21
-12.7388502080211392
 31
0.0
  0
ARC
  5
44CB
  8
0
 10
581.448175711603767
 20
-12.7036434720840195
 30
0.0
 40
0.0530013526725989
 50
226.5379740579323027
 51
242.1559722302413888
  0
ARC
  5
44CC
  8
0
 10
581.3751538205754059
 20
-12.7749610258345694
 30
0.0
 40
0.0541073691558188
 50
26.8673776185668807
 51
41.8660851539311309
  0
ARC
  5
44CD
  8
0
 10
581.6414253555381038
 20
-12.2124744663691498
 30
0.0
 40
0.5413904467309606
 50
234.181540900208887
 51
235.6963155558362075
  0
ARC
  5
44CE
  8
0
 10
580.7007937154367028
 20
-13.3742330060499608
 30
0.0
 40
0.9562645888016837
 50
41.6395668313323597
 51
48.3498123619706419
  0
ARC
  5
44CF
  8
0
 10
581.3879208807676378
 20
-12.6181481068625896
 30
0.0
 40
0.0715595118460441
 50
207.7554469871327001
 51
219.5090717379684122
  0
ARC
  5
44D0
  8
0
 10
581.1200727395729473
 20
-12.9615419883537406
 30
0.0
 40
0.3500355102828225
 50
42.5489801054315606
 51
49.0286186565196402
  0
ARC
  5
44D1
  8
0
 10
581.4396170737078364
 20
-12.6330758353444601
 30
0.0
 40
0.110564129279477
 50
215.4818044525455036
 51
236.0957943094126108
  0
ARC
  5
44D2
  8
0
 10
589.0420824405930489
 20
-5.1034708859353284
 30
0.0
 40
10.8379614356153393
 50
234.2206022829234939
 51
236.9143132894868984
  0
LINE
  5
44D3
  8
0
 10
582.8274961528813947
 20
-13.9826783591544892
 30
0.0
 11
582.8187161299091485
 21
-13.9935901771301801
 31
0.0
  0
ARC
  5
44D4
  8
0
 10
582.8109250855560504
 20
-13.9873212356439591
 30
0.0
 40
0.0099999999734351
 50
234.1786511703415954
 51
321.1786515116770033
  0
LINE
  5
44D5
  8
0
 10
582.8050724871443435
 20
-13.9954296936539393
 30
0.0
 11
582.7312687275293683
 21
-13.9421589280198805
 31
0.0
  0
ARC
  5
44D6
  8
0
 10
582.7371213260207696
 20
-13.9340504698995407
 30
0.0
 40
0.0100000001095355
 50
147.1786535678002963
 51
234.1786511703355984
  0
LINE
  5
44D7
  8
0
 10
582.7287176786951477
 20
-13.9286302564519993
 30
0.0
 11
582.7357383415976528
 21
-13.9177452284737004
 31
0.0
  0
ARC
  5
44D8
  8
0
 10
582.3575206754227338
 20
-14.2944227311630296
 30
0.0
 40
0.5547583069899642
 50
46.8361196480041286
 51
61.3276316046701382
  0
ARC
  5
44D9
  8
0
 10
582.7524576051235954
 20
-13.8316997012014493
 30
0.0
 40
0.0600978780615184
 50
241.6558249931576086
 51
255.119124585380689
  0
LINE
  5
44DA
  8
0
 10
582.7271213028770944
 20
-13.8807173343409591
 30
0.0
 11
582.7170823972209064
 21
-13.8928889862822906
 31
0.0
  0
ARC
  5
44DB
  8
0
 10
582.7090738455564178
 20
-13.8862837124058096
 30
0.0
 40
0.0103810665514682
 50
249.8331255181018093
 51
320.4849522224233169
  0
ARC
  5
44DC
  8
0
 10
582.9268065058638513
 20
-13.5126570220070104
 30
0.0
 40
0.4426650979327961
 50
227.9516548477413096
 51
240.0031323226849906
  0
ARC
  5
44DD
  8
0
 10
582.6375303362596014
 20
-13.83268396931064
 30
0.0
 40
0.0112844419568284
 50
148.9337642569080913
 51
230.3400710801928142
  0
LINE
  5
44DE
  8
0
 10
582.6278644068305539
 20
-13.8268608740384398
 30
0.0
 11
582.6359745498750726
 21
-13.8146100396085405
 31
0.0
  0
ARC
  5
44DF
  8
0
 10
582.6881778024087453
 20
-13.7583039906117595
 30
0.0
 40
0.0812229279139346
 50
217.4473913670194065
 51
227.6795952680114112
  0
ARC
  5
44E0
  8
0
 10
582.5223088779314367
 20
-14.0599417892974703
 30
0.0
 40
0.2419926137126446
 50
48.3562989524762727
 51
57.8452832366462388
  0
ARC
  5
44E1
  8
0
 10
582.7256543494468133
 20
-13.7891032373008802
 30
0.0
 40
0.099547775040214
 50
221.5014151081591081
 51
244.7001719106405915
  0
ARC
  5
44E2
  8
0
 10
589.0352729617274008
 20
-5.0979439101941937
 30
0.0
 40
10.8384530539339092
 50
232.2835066039125138
 51
233.7772255234592933
  0
LINE
  5
44E3
  8
0
 10
582.4054312403052336
 20
-13.6721647699119995
 30
0.0
 11
582.3999457205842418
 21
-13.6800502945686802
 31
0.0
  0
ARC
  5
44E4
  8
0
 10
582.4081548032221463
 20
-13.6857608955321997
 30
0.0
 40
0.0100000000560585
 50
145.1758175985901005
 51
232.1758170191114914
  0
LINE
  5
44E5
  8
0
 10
582.4020223981691515
 20
-13.6936598580835192
 30
0.0
 11
582.473919314651539
 21
-13.7494774431228493
 31
0.0
  0
ARC
  5
44E6
  8
0
 10
582.4800517196262035
 20
-13.74157848067237
 30
0.0
 40
0.009999999928397
 50
232.1758170191110935
 51
319.1758200094635072
  0
LINE
  5
44E7
  8
0
 10
582.4876189118858747
 20
-13.7481158807574104
 30
0.0
 11
582.4944210406489447
 21
-13.7402422589114597
 31
0.0
  0
LINE
  5
44E8
  8
0
 10
582.4161195303989871
 20
-13.6600446518991792
 30
0.0
 11
582.4080152728680559
 21
-13.6692472323564296
 31
0.0
  0
ARC
  5
44E9
  8
0
 10
582.4004937584619483
 20
-13.6626234065660199
 30
0.0
 40
0.0100223872936959
 50
295.430312827825901
 51
318.6312231844988219
  0
ARC
  5
44EA
  8
0
 10
582.400290021767546
 20
-13.6621949232869397
 30
0.0
 40
0.0104968412546511
 50
244.569725249829105
 51
295.4303128278261283
  0
ARC
  5
44EB
  8
0
 10
582.7073074863500324
 20
-13.1983591192362599
 30
0.0
 40
0.5666351874736894
 50
227.3420766662218
 51
236.6480489931192039
  0
ARC
  5
44EC
  8
0
 10
582.3343033123212535
 20
-13.6038905835481891
 30
0.0
 40
0.0156547949911021
 50
198.4726737451412077
 51
225.5694989685540861
  0
ARC
  5
44ED
  8
0
 10
582.3279778804818534
 20
-13.6060036894187295
 30
0.0
 40
0.0089857392577018
 50
141.0608154542211992
 51
198.4726737451335055
  0
LINE
  5
44EE
  8
0
 10
582.3209886511524473
 20
-13.6003561958695496
 30
0.0
 11
582.3280278728253734
 21
-13.5909215225923692
 31
0.0
  0
ARC
  5
44EF
  8
0
 10
582.3812960735326669
 20
-13.5314480279170493
 30
0.0
 40
0.0843291243094574
 50
218.1521904850785916
 51
228.4236948095714013
  0
ARC
  5
44F0
  8
0
 10
582.2930446106273621
 20
-13.6375494481235702
 30
0.0
 40
0.0582922985766791
 50
53.1204163781877625
 51
67.8932405466728852
  0
ARC
  5
44F1
  8
0
 10
588.2819306720070927
 20
-6.0938637614585023
 30
0.0
 40
9.5736530966962672
 50
231.5446179552783974
 51
232.2147557347171869
  0
ARC
  5
44F2
  8
0
 10
582.5378160820430367
 20
-13.41493902153573
 30
0.0
 40
0.2783597043113613
 50
243.3366038848407129
 51
246.1713827635684027
  0
ARC
  5
44F3
  8
0
 10
582.3876875423234196
 20
-13.6968614144769294
 30
0.0
 40
0.046517222108014
 50
35.9216175672494771
 51
52.3226484506055414
  0
ARC
  5
44F4
  8
0
 10
582.1174828617549792
 20
-13.9430813574881096
 30
0.0
 40
0.3865394367171521
 50
48.2827098035244902
 51
54.3240582825043816
  0
ARC
  5
44F5
  8
0
 10
582.4471523185644628
 20
-13.5315367761499008
 30
0.0
 40
0.1427635301686284
 50
223.1005490386160943
 51
239.5062222419437887
  0
ARC
  5
44F6
  8
0
 10
589.1978198045949284
 20
-4.8770054516902777
 30
0.0
 40
11.1127429719206603
 50
227.6613317371877088
 51
231.7570577352356054
  0
LINE
  5
44F7
  8
0
 10
582.1704477021529556
 20
-13.4856695579144805
 30
0.0
 11
582.1653030255907879
 21
-13.4912200509350697
 31
0.0
  0
ARC
  5
44F8
  8
0
 10
582.1579689315249198
 20
-13.4844221787991607
 30
0.0
 40
0.0100000000671567
 50
230.1729831860139086
 51
317.1729829564112038
  0
LINE
  5
44F9
  8
0
 10
582.1515642124934402
 20
-13.4921019949083103
 30
0.0
 11
582.0816619825809539
 21
-13.4338057888661293
 31
0.0
  0
ARC
  5
44FA
  8
0
 10
582.0880667016087955
 20
-13.4261259727615592
 30
0.0
 40
0.0100000000611888
 50
143.1729836829728129
 51
230.1729831860153865
  0
LINE
  5
44FB
  8
0
 10
582.0800622132784383
 20
-13.4201319617677193
 30
0.0
 11
582.0842312896294288
 21
-13.4145645173580892
 31
0.0
  0
LINE
  5
44FC
  8
0
 10
582.4400614311804247
 20
-13.5920274914838508
 30
0.0
 11
582.4275870302818703
 21
-13.6061240415886395
 31
0.0
  0
ARC
  5
44FD
  8
0
 10
582.4190469595109789
 20
-13.5985667126176892
 30
0.0
 40
0.0114037726190198
 50
242.54135002878661
 51
318.4935555496463735
  0
ARC
  5
44FE
  8
0
 10
582.5259372393478543
 20
-13.3928700834519105
 30
0.0
 40
0.2432154098890022
 50
220.8010558951667974
 51
242.54135002878661
  0
ARC
  5
44FF
  8
0
 10
582.3512445662737491
 20
-13.5436663720349308
 30
0.0
 40
0.0124405181087067
 50
147.9183415731831133
 51
220.8010558951685027
  0
LINE
  5
4500
  8
0
 10
582.3407038149322261
 20
-13.5370588723590792
 30
0.0
 11
582.3511902124270136
 21
-13.5223371633482401
 31
0.0
  0
ARC
  5
4501
  8
0
 10
582.3740252810010816
 20
-13.5050726781762602
 30
0.0
 40
0.0385104575856114
 50
201.3012773372456934
 51
221.6599747444635966
  0
ARC
  5
4502
  8
0
 10
582.3125870440800327
 20
-13.6484910209059205
 30
0.0
 40
0.1319280121244498
 50
72.9858527738685154
 51
78.8293318373455634
  0
ARC
  5
4503
  8
0
 10
582.1112879291198396
 20
-13.9197786264521906
 30
0.0
 40
0.4642335857412703
 50
44.9107767342712165
 51
58.8841199300489322
  0
ARC
  5
4504
  8
0
 10
582.8431201983512437
 20
-13.3516700066466392
 30
0.0
 40
0.4692846580814301
 50
210.8090438904538075
 51
212.536913768445288
  0
ARC
  5
4505
  8
0
 10
582.4561485279270983
 20
-13.5430672046566993
 30
0.0
 40
0.0616153149767806
 50
247.8281581628932031
 51
261.9236743357708974
  0
ARC
  5
4506
  8
0
 10
582.3118271125028969
 20
-13.6618056507938501
 30
0.0
 40
0.1086453711701963
 50
40.2150878321195435
 51
62.3290370415548907
  0
ARC
  5
4507
  8
0
 10
582.4257805780456465
 20
-13.5197105221317404
 30
0.0
 40
0.0783372994280115
 50
215.8465659746881045
 51
246.6975588989836012
  0
LINE
  5
4508
  8
0
 10
582.1954954573121768
 20
-13.4302002641768503
 30
0.0
 11
582.183021056413736
 21
-13.4442968142816408
 31
0.0
  0
ARC
  5
4509
  8
0
 10
582.1744809856428446
 20
-13.4367394853106905
 30
0.0
 40
0.0114037726190198
 50
242.54135002878661
 51
318.4935555496463735
  0
ARC
  5
450A
  8
0
 10
582.2813712654799474
 20
-13.2310428561449207
 30
0.0
 40
0.2432154098890022
 50
220.8010558951667974
 51
242.54135002878661
  0
ARC
  5
450B
  8
0
 10
582.1066785924057285
 20
-13.3818391447279392
 30
0.0
 40
0.0124405181087067
 50
147.9183415731831133
 51
220.8010558951685027
  0
LINE
  5
450C
  8
0
 10
582.0961378410640918
 20
-13.3752316450520805
 30
0.0
 11
582.1066242385588794
 21
-13.3605099360412396
 31
0.0
  0
ARC
  5
450D
  8
0
 10
582.1294593071329473
 20
-13.3432454508692597
 30
0.0
 40
0.0385104575856114
 50
201.3012773372456934
 51
221.6599747444635966
  0
ARC
  5
450E
  8
0
 10
582.0680210702118984
 20
-13.48666379359892
 30
0.0
 40
0.1319280121244498
 50
72.9858527738685154
 51
78.8293318373455634
  0
ARC
  5
450F
  8
0
 10
581.8667219552517054
 20
-13.7579513991451901
 30
0.0
 40
0.4642335857412703
 50
44.9107767342712165
 51
58.8841199300489322
  0
ARC
  5
4510
  8
0
 10
582.5985542244832232
 20
-13.1898427793396404
 30
0.0
 40
0.4692846580814301
 50
210.8090438904538075
 51
212.536913768445288
  0
ARC
  5
4511
  8
0
 10
582.2115825540590777
 20
-13.3812399773497006
 30
0.0
 40
0.0616153149767806
 50
247.8281581628932031
 51
261.9236743357708974
  0
ARC
  5
4512
  8
0
 10
582.0672611386347626
 20
-13.4999784234868603
 30
0.0
 40
0.1086453711701963
 50
40.2150878321195435
 51
62.3290370415548907
  0
ARC
  5
4513
  8
0
 10
582.1812146041777396
 20
-13.3578832948247399
 30
0.0
 40
0.0783372994280115
 50
215.8465659746881045
 51
246.6975588989836012
  0
LINE
  5
4514
  8
0
 10
582.0096651688476186
 20
-13.16061644067568
 30
0.0
 11
581.9971907679491778
 21
-13.1747129907804705
 31
0.0
  0
ARC
  5
4515
  8
0
 10
581.9886506971782865
 20
-13.1671556618095202
 30
0.0
 40
0.0114037726190198
 50
242.54135002878661
 51
318.4935555496463735
  0
ARC
  5
4516
  8
0
 10
582.0955409770151618
 20
-12.9614590326437504
 30
0.0
 40
0.2432154098890022
 50
220.8010558951667974
 51
242.54135002878661
  0
ARC
  5
4517
  8
0
 10
581.9208483039410567
 20
-13.1122553212267707
 30
0.0
 40
0.0124405181087067
 50
147.9183415731831133
 51
220.8010558951685027
  0
LINE
  5
4518
  8
0
 10
581.91030755259942
 20
-13.1056478215509102
 30
0.0
 11
581.9207939500942075
 21
-13.0909261125400693
 31
0.0
  0
ARC
  5
4519
  8
0
 10
581.9436290186683891
 20
-13.0736616273680895
 30
0.0
 40
0.0385104575856114
 50
201.3012773372456934
 51
221.6599747444635966
  0
ARC
  5
451A
  8
0
 10
581.8821907817472265
 20
-13.2170799700977497
 30
0.0
 40
0.1319280121244498
 50
72.9858527738685154
 51
78.8293318373455634
  0
ARC
  5
451B
  8
0
 10
581.6808916667871472
 20
-13.4883675756440198
 30
0.0
 40
0.4642335857412703
 50
44.9107767342712165
 51
58.8841199300489322
  0
ARC
  5
451C
  8
0
 10
582.4127239360185513
 20
-12.9202589558384702
 30
0.0
 40
0.4692846580814301
 50
210.8090438904538075
 51
212.536913768445288
  0
ARC
  5
451D
  8
0
 10
582.0257522655944058
 20
-13.1116561538485303
 30
0.0
 40
0.0616153149767806
 50
247.8281581628932031
 51
261.9236743357708974
  0
ARC
  5
451E
  8
0
 10
581.8814308501702044
 20
-13.2303945999856793
 30
0.0
 40
0.1086453711701963
 50
40.2150878321195435
 51
62.3290370415548907
  0
ARC
  5
451F
  8
0
 10
581.995384315712954
 20
-13.0882994713235696
 30
0.0
 40
0.0783372994280115
 50
215.8465659746881045
 51
246.6975588989836012
  0
LINE
  5
4520
  8
0
 10
581.8578522445451426
 20
-13.0914387137723693
 30
0.0
 11
581.8453778436465882
 21
-13.1055352638771598
 31
0.0
  0
ARC
  5
4521
  8
0
 10
581.8368377728758105
 20
-13.0979779349062095
 30
0.0
 40
0.0114037726190198
 50
242.54135002878661
 51
318.4935555496463735
  0
ARC
  5
4522
  8
0
 10
581.9437280527125722
 20
-12.8922813057404397
 30
0.0
 40
0.2432154098890022
 50
220.8010558951667974
 51
242.54135002878661
  0
ARC
  5
4523
  8
0
 10
581.769035379638467
 20
-13.04307759432346
 30
0.0
 40
0.0124405181087067
 50
147.9183415731831133
 51
220.8010558951685027
  0
LINE
  5
4524
  8
0
 10
581.758494628296944
 20
-13.0364700946475995
 30
0.0
 11
581.7689810257917316
 21
-13.0217483856367604
 31
0.0
  0
ARC
  5
4525
  8
0
 10
581.7918160943657995
 20
-13.0044839004647805
 30
0.0
 40
0.0385104575856114
 50
201.3012773372456934
 51
221.6599747444635966
  0
ARC
  5
4526
  8
0
 10
581.7303778574447506
 20
-13.1479022431944408
 30
0.0
 40
0.1319280121244498
 50
72.9858527738685154
 51
78.8293318373455634
  0
ARC
  5
4527
  8
0
 10
581.5290787424844439
 20
-13.4191898487407109
 30
0.0
 40
0.4642335857412703
 50
44.9107767342712165
 51
58.8841199300489322
  0
ARC
  5
4528
  8
0
 10
582.2609110117159616
 20
-12.8510812289351595
 30
0.0
 40
0.4692846580814301
 50
210.8090438904538075
 51
212.536913768445288
  0
ARC
  5
4529
  8
0
 10
581.8739393412920435
 20
-13.0424784269452196
 30
0.0
 40
0.0616153149767806
 50
247.8281581628932031
 51
261.9236743357708974
  0
ARC
  5
452A
  8
0
 10
581.7296179258677284
 20
-13.1612168730823704
 30
0.0
 40
0.1086453711701963
 50
40.2150878321195435
 51
62.3290370415548907
  0
ARC
  5
452B
  8
0
 10
581.8435713914103644
 20
-13.0191217444202607
 30
0.0
 40
0.0783372994280115
 50
215.8465659746881045
 51
246.6975588989836012
  0
ARC
  5
452C
  8
0
 10
581.5678793834339331
 20
-13.6183317424676495
 30
0.0
 40
0.5204870212295269
 50
41.1548107368636877
 51
56.6124783849182691
  0
ARC
  5
452D
  8
0
 10
581.9803081373431723
 20
-13.2148893854904994
 30
0.0
 40
0.0642807381554092
 50
238.392096622725802
 51
251.3686390500648997
  0
LINE
  5
452E
  8
0
 10
581.9505892869798345
 20
-13.26557138614025
 30
0.0
 11
581.9441554629062239
 21
-13.2721519469282008
 31
0.0
  0
ARC
  5
452F
  8
0
 10
581.9366756221124888
 20
-13.2648388954549095
 30
0.0
 40
0.0104608192867006
 50
246.6661144606300127
 51
315.645980450114223
  0
ARC
  5
4530
  8
0
 10
582.1778080602107366
 20
-12.9188813695216496
 30
0.0
 40
0.4319550115479564
 50
223.1041311323120908
 51
235.401144419802506
  0
ARC
  5
4531
  8
0
 10
581.8712220946275693
 20
-13.2054278186913603
 30
0.0
 40
0.0123111966080702
 50
147.668909585966702
 51
224.4399346335717951
  0
LINE
  5
4532
  8
0
 10
581.8608194812464944
 20
-13.19884365611993
 30
0.0
 11
581.8663107089283812
 21
-13.1918982972128003
 31
0.0
  0
ARC
  5
4533
  8
0
 10
581.923558415840148
 20
-13.14170733866397
 30
0.0
 40
0.0810138229019067
 50
211.2555686668492001
 51
221.8765246815399053
  0
ARC
  5
4534
  8
0
 10
581.7207538221301775
 20
-13.4393866661193098
 30
0.0
 40
0.2649809631680062
 50
43.8866532587221769
 51
52.8291410782352528
  0
ARC
  5
4535
  8
0
 10
581.9773106187080884
 20
-13.1508471313944995
 30
0.0
 40
0.1236672285000343
 50
218.7420360104343899
 51
237.9737583265228125
  0
LINE
  5
4536
  8
0
 10
581.856129466935954
 20
-13.2192257404322095
 30
0.0
 11
581.8521622768513453
 21
-13.2232165632690108
 31
0.0
  0
ARC
  5
4537
  8
0
 10
581.845070241524013
 20
-13.2161665253744296
 30
0.0
 40
0.0099999999699625
 50
228.1701486090665014
 51
315.1701496333545265
  0
LINE
  5
4538
  8
0
 10
581.8384010337787231
 20
-13.2236178116693601
 30
0.0
 11
581.7705788977320935
 21
-13.1629142100197605
 31
0.0
  0
ARC
  5
4539
  8
0
 10
581.7772481056452989
 20
-13.1554629235374403
 30
0.0
 40
0.0100000002214395
 50
141.1701547364355065
 51
228.1701486090672972
  0
LINE
  5
453A
  8
0
 10
581.7694579908479682
 20
-13.1491928265784601
 30
0.0
 11
581.7727510821295027
 21
-13.1451014131142401
 31
0.0
  0
ARC
  5
453B
  8
0
 10
581.259629546329279
 20
-13.5036813836997904
 30
0.0
 40
0.6242575986059496
 50
40.9828209327329489
 51
53.8551058781584118
  0
ARC
  5
453C
  8
0
 10
582.0015727571430943
 20
-12.7412335266563606
 30
0.0
 40
0.4543354851927988
 50
214.6537651966048941
 51
216.531832898296102
  0
LINE
  5
453D
  8
0
 10
581.6393856925952832
 20
-13.0082191562894298
 30
0.0
 11
581.636502264105161
 21
-13.0116854969181794
 31
0.0
  0
LINE
  5
453E
  8
0
 10
581.636502264105161
 20
-13.0116854969181794
 30
0.0
 11
581.6350086867522577
 21
-13.0134810149546407
 31
0.0
  0
ARC
  5
453F
  8
0
 10
581.6428710239922566
 20
-13.0200211936688497
 30
0.0
 40
0.0102269391553544
 50
140.2450815825471864
 51
217.5626453719507936
  0
ARC
  5
4540
  8
0
 10
582.0811870212971826
 20
-12.6105196385320095
 30
0.0
 40
0.6100244755266607
 50
222.9615484684931062
 51
231.9104743453665947
  0
ARC
  5
4541
  8
0
 10
581.7096662048725193
 20
-13.0831610913005996
 30
0.0
 40
0.0088842467824822
 50
237.3093774419187127
 51
320.3218431214796738
  0
LINE
  5
4542
  8
0
 10
581.7165039033911853
 20
-13.08883345587458
 30
0.0
 11
581.721622878182302
 21
-13.0838484279416392
 31
0.0
  0
ARC
  5
4543
  8
0
 10
581.8643685684928641
 20
-12.8703884153588906
 30
0.0
 40
0.2606567802206964
 50
236.0480468928888911
 51
239.1960045049133896
  0
ARC
  5
4544
  8
0
 10
585.0066380669403543
 20
-9.4502771419500871
 30
0.0
 40
4.914032419824311
 50
226.9974229641030945
 51
227.4658544343664062
  0
ARC
  5
4545
  8
0
 10
581.7639382174216962
 20
-12.9559555645650395
 30
0.0
 40
0.1399941484982146
 50
218.9818148863942895
 51
235.4814625120756091
  0
LINE
  5
4546
  8
0
 10
581.3801633358998515
 20
-12.7652797996834497
 30
0.0
 11
581.6331053213322093
 21
-13.0169845283853203
 31
0.0
  0
LINE
  5
4548
  8
0
 10
583.1517458945879753
 20
-10.4202275065772199
 30
0.0
 11
583.6511989845405424
 21
-10.91968059652981
 31
0.0
  0
LINE
  5
4549
  8
0
 10
583.5547843869760527
 20
-10.9911367682653101
 30
0.0
 11
583.0802897229149266
 21
-10.5166421042040792
 31
0.0
  0
ENDSEC
  0
EOF
