  0
SECTION
  2
HEADER
  9
$ACADVER
  1
AC1009
  9
$INSBASE
 10
4581.3478232976412983
 20
191.324362304285188
 30
0.0
  9
$EXTMIN
 10
4578.3946801926413173
 20
186.8197780088852937
 30
0.0
  9
$EXTMAX
 10
4581.3592825603000165
 20
192.3083623042853105
 30
0.0
  9
$LIMMIN
 10
0.0
 20
0.0
  9
$LIMMAX
 10
11.6929133858000007
 20
8.2677165353999982
  9
$ORTHOMODE
 70
     0
  9
$REGENMODE
 70
     1
  9
$FILLMODE
 70
     1
  9
$QTEXTMODE
 70
     0
  9
$MIRRTEXT
 70
     0
  9
$DRAGMODE
 70
     2
  9
$LTSCALE
 40
0.6431102362
  9
$OSMODE
 70
  4095
  9
$ATTMODE
 70
     1
  9
$TEXTSIZE
 40
0.2
  9
$TRACEWID
 40
0.05
  9
$TEXTSTYLE
  7
STANDARD
  9
$CLAYER
  8
0
  9
$CELTYPE
  6
BYLAYER
  9
$CECOLOR
 62
   256
  9
$DIMSCALE
 40
1.0
  9
$DIMASZ
 40
0.1875
  9
$DIMEXO
 40
0.0625
  9
$DIMDLI
 40
0.4443307087
  9
$DIMRND
 40
0.0
  9
$DIMDLE
 40
0.0
  9
$DIMEXE
 40
0.125
  9
$DIMTP
 40
0.01
  9
$DIMTM
 40
0.01
  9
$DIMTXT
 40
2.0
  9
$DIMCEN
 40
0.1052362205
  9
$DIMTSZ
 40
0.0
  9
$DIMTOL
 70
     1
  9
$DIMLIM
 70
     0
  9
$DIMTIH
 70
     1
  9
$DIMTOH
 70
     1
  9
$DIMSE1
 70
     0
  9
$DIMSE2
 70
     0
  9
$DIMTAD
 70
     0
  9
$DIMZIN
 70
     0
  9
$DIMBLK
  1

  9
$DIMASO
 70
     1
  9
$DIMSHO
 70
     1
  9
$DIMPOST
  1
\X
  9
$DIMAPOST
  1

  9
$DIMALT
 70
     1
  9
$DIMALTD
 70
     2
  9
$DIMALTF
 40
25.3999999999999986
  9
$DIMLFAC
 40
1.0
  9
$DIMTOFL
 70
     0
  9
$DIMTVP
 40
0.0
  9
$DIMTIX
 70
     0
  9
$DIMSOXD
 70
     0
  9
$DIMSAH
 70
     0
  9
$DIMBLK1
  1

  9
$DIMBLK2
  1

  9
$DIMSTYLE
  2
STANDARD
  9
$DIMCLRD
 70
     0
  9
$DIMCLRE
 70
     0
  9
$DIMCLRT
 70
     0
  9
$DIMTFAC
 40
1.0
  9
$DIMGAP
 40
0.09
  9
$LUNITS
 70
     2
  9
$LUPREC
 70
     4
  9
$SKETCHINC
 40
0.1
  9
$FILLETRAD
 40
0.0
  9
$AUNITS
 70
     0
  9
$AUPREC
 70
     0
  9
$MENU
  1
.
  9
$ELEVATION
 40
0.0
  9
$PELEVATION
 40
0.0
  9
$THICKNESS
 40
0.0
  9
$LIMCHECK
 70
     0
  9
$BLIPMODE
 70
     0
  9
$CHAMFERA
 40
0.0
  9
$CHAMFERB
 40
0.0
  9
$SKPOLY
 70
     0
  9
$TDCREATE
 40
2458060.468368056230247
  9
$TDUPDATE
 40
2460181.4822222217917442
  9
$TDINDWG
 40
0.4711760417
  9
$TDUSRTIMER
 40
0.4711760417
  9
$USRTIMER
 70
     1
  9
$ANGBASE
 50
0.0
  9
$ANGDIR
 70
     0
  9
$PDMODE
 70
     0
  9
$PDSIZE
 40
0.3125
  9
$PLINEWID
 40
0.0
  9
$COORDS
 70
     1
  9
$SPLFRAME
 70
     0
  9
$SPLINETYPE
 70
     6
  9
$SPLINESEGS
 70
     8
  9
$ATTDIA
 70
     1
  9
$ATTREQ
 70
     1
  9
$HANDLING
 70
     1
  9
$HANDSEED
  5
D6C1
  9
$SURFTAB1
 70
     6
  9
$SURFTAB2
 70
     6
  9
$SURFTYPE
 70
     6
  9
$SURFU
 70
     6
  9
$SURFV
 70
     6
  9
$UCSNAME
  2

  9
$UCSORG
 10
0.0
 20
0.0
 30
0.0
  9
$UCSXDIR
 10
1.0
 20
0.0
 30
0.0
  9
$UCSYDIR
 10
0.0
 20
1.0
 30
0.0
  9
$PUCSNAME
  2

  9
$PUCSORG
 10
0.0
 20
0.0
 30
0.0
  9
$PUCSXDIR
 10
1.0
 20
0.0
 30
0.0
  9
$PUCSYDIR
 10
0.0
 20
1.0
 30
0.0
  9
$USERI1
 70
     0
  9
$USERI2
 70
     0
  9
$USERI3
 70
     0
  9
$USERI4
 70
     0
  9
$USERI5
 70
     0
  9
$USERR1
 40
0.0
  9
$USERR2
 40
0.0
  9
$USERR3
 40
0.0
  9
$USERR4
 40
0.0
  9
$USERR5
 40
0.0
  9
$WORLDVIEW
 70
     1
  9
$SHADEDGE
 70
     3
  9
$SHADEDIF
 70
    70
  9
$TILEMODE
 70
     1
  9
$MAXACTVP
 70
    64
  9
$PLIMCHECK
 70
     0
  9
$PEXTMIN
 10
1.0000000000000000E+20
 20
1.0000000000000000E+20
 30
1.0000000000000000E+20
  9
$PEXTMAX
 10
-1.0000000000000000E+20
 20
-1.0000000000000000E+20
 30
-1.0000000000000000E+20
  9
$PLIMMIN
 10
0.0
 20
0.0
  9
$PLIMMAX
 10
12.0
 20
9.0
  9
$UNITMODE
 70
     0
  9
$VISRETAIN
 70
     1
  9
$PLINEGEN
 70
     0
  9
$PSLTSCALE
 70
     1
  0
ENDSEC
  0
SECTION
  2
TABLES
  0
TABLE
  2
VPORT
 70
     1
  0
VPORT
  2
*ACTIVE
 70
     0
 10
0.0
 20
0.0
 11
1.0
 21
1.0
 12
776.3329139936581669
 22
63.5688079598353681
 13
0.0
 23
0.0
 14
1.0
 24
1.0
 15
0.0
 25
0.0
 16
0.0
 26
0.0
 36
17.1152628219792007
 17
3803.5440673828129547
 27
125.9952621967499056
 37
0.0
 40
5.5340987179686199
 41
2.5251322751322749
 42
50.0
 43
0.0
 44
0.0
 50
0.0
 51
0.0
 71
     0
 72
   100
 73
     1
 74
     1
 75
     0
 76
     0
 77
     0
 78
     0
  0
ENDTAB
  0
TABLE
  2
LTYPE
 70
     2
  0
LTYPE
  2
CONTINUOUS
 70
     0
  3
Solid line
 72
    65
 73
     0
 40
0.0
  0
LTYPE
  2
PHANTOM2
 70
     0
  3
___ _ _ ___ _ _ ___ _ _ ___ _ _
 72
    65
 73
     6
 40
1.25
 49
0.625
 49
-0.125
 49
0.125
 49
-0.125
 49
0.125
 49
-0.125
  0
ENDTAB
  0
TABLE
  2
LAYER
 70
     2
  0
LAYER
  2
0
 70
     0
 62
   255
  6
CONTINUOUS
  0
LAYER
  2
DEFPOINTS
 70
     0
 62
     7
  6
CONTINUOUS
  0
ENDTAB
  0
TABLE
  2
STYLE
 70
     1
  0
STYLE
  2
STANDARD
 70
     0
 40
0.0
 41
0.8
 50
0.0
 71
     0
 42
0.2
  3
txt
  4

  0
ENDTAB
  0
TABLE
  2
VIEW
 70
     0
  0
ENDTAB
  0
TABLE
  2
UCS
 70
     0
  0
ENDTAB
  0
TABLE
  2
APPID
 70
     9
  0
APPID
  2
ACAD
 70
     0
  0
APPID
  2
ACAD_MLEADERVER
 70
     0
  0
APPID
  2
ACAD_EXEMPT_FROM_CAD_STANDARDS
 70
     0
  0
APPID
  2
ACAD_NAV_VCDISPLAY
 70
     0
  0
APPID
  2
ACAECLAYERSTANDARD
 70
     0
  0
APPID
  2
ACCMTRANSPARENCY
 70
     0
  0
APPID
  2
ACAD_DSTYLE_DIMJAG
 70
     0
  0
APPID
  2
ACAD_DSTYLE_DIMTALN
 70
     0
  0
APPID
  2
ACDBATTR
 70
     0
  0
ENDTAB
  0
TABLE
  2
DIMSTYLE
 70
     1
  0
DIMSTYLE
  2
STANDARD
 70
     0
  3

  4

  5

  6

  7

 40
1.0
 41
0.1875
 42
0.0625
 43
0.38
 44
0.125
 45
0.0
 46
0.0
 47
0.01
 48
0.01
140
0.15625
141
0.09
142
0.0
143
25.3999999999999986
144
1.0
145
0.0
146
1.0
147
0.09
 71
     1
 72
     0
 73
     1
 74
     1
 75
     0
 76
     0
 77
     0
 78
     4
170
     0
171
     2
172
     0
173
     0
174
     0
175
     0
176
     0
177
     0
178
     0
  0
ENDTAB
  0
ENDSEC
  0
SECTION
  2
BLOCKS
  0
BLOCK
  8
0
  2
$MODEL_SPACE
 70
     0
 10
0.0
 20
0.0
 30
0.0
  3
$MODEL_SPACE
  1

  0
ENDBLK
  5
21
  8
0
  0
BLOCK
 67
     1
  8
0
  2
$PAPER_SPACE
 70
     0
 10
0.0
 20
0.0
 30
0.0
  3
$PAPER_SPACE
  1

  0
ENDBLK
  5
1D
 67
     1
  8
0
  0
BLOCK
  8
0
  2
_FILLED
 70
     0
 10
0.0
 20
0.0
 30
0.0
  3
_FILLED
  1

  0
SOLID
  5
CEB5
  8
0
  6
BYBLOCK
 62
     0
 10
0.0
 20
0.0
 30
0.0
 11
-1.0
 21
0.1666666667
 31
0.0
 12
-1.0
 22
-0.1666666667
 32
0.0
 13
-1.0
 23
-0.1666666667
 33
0.0
  0
ENDBLK
  5
CEB6
  8
0
  6
BYBLOCK
 62
     0
  0
ENDSEC
  0
SECTION
  2
ENTITIES
  0
ATTDEF
  5
AB47
  8
DEFPOINTS
 10
4581.3486158936311767
 20
191.3241350364477
 30
0.0
 40
0.001
  1
P34138-00
  3

  2
MODELNUMBER
 70
     0
1001
ACDBATTR
1070
     0
1070
     1
  0
ATTDEF
  5
AB48
  8
DEFPOINTS
 10
4581.3486158936311767
 20
191.3224683697810917
 30
0.0
 40
0.001
  1
002
  3

  2
TRADENAME
 70
     0
1001
ACDBATTR
1070
     0
1070
     1
  0
ATTDEF
  5
AB49
  8
DEFPOINTS
 10
4581.3486158936311767
 20
191.3208017031143982
 30
0.0
 40
0.001
  1
TOWEL RING
  3

  2
PRODUCT
 70
     0
1001
ACDBATTR
1070
     0
1070
     1
  0
LINE
  5
D59E
  8
0
 10
4578.3946801926413173
 20
191.4018710713953908
 30
0.0
 11
4578.3946801926413173
 21
187.2512692417751055
 31
0.0
  0
LINE
  5
D59F
  8
0
 10
4578.4676224595759777
 20
191.8333598957372033
 30
0.0
 11
4578.4676224595759777
 21
186.8197832285464131
 31
0.0
  0
ARC
  5
D5A0
  8
0
 10
4581.8953741900031673
 20
191.3059237758517099
 30
0.0
 40
3.5020086160221511
 50
171.8917050373057123
 51
178.4300258272166957
  0
ARC
  5
D5A1
  8
0
 10
4578.3900770195414225
 20
191.3287756003371953
 30
0.0
 40
0.5108958844000018
 50
0.0
 51
80.6203621260116137
  0
ARC
  5
D5A2
  8
0
 10
4578.4669844107365861
 20
191.7943623042853005
 30
0.0
 40
0.039
 50
80.6203621260113437
 51
171.8917050373025006
  0
LINE
  5
D5A3
  8
0
 10
4581.2100729039411817
 20
192.3083623042853105
 30
0.0
 11
4581.3478232976412983
 21
192.3083623042853105
 31
0.0
  0
LINE
  5
D5A4
  8
0
 10
4581.3478232976412983
 20
192.3083623042853105
 30
0.0
 11
4581.3478232976412983
 21
190.3403623042852928
 31
0.0
  0
LINE
  5
D5A5
  8
0
 10
4581.1509729039398735
 20
192.2492623042853097
 30
0.0
 11
4581.1509729039398735
 21
190.3994623042852936
 31
0.0
  0
LINE
  5
D5A6
  8
0
 10
4581.1409729039405647
 20
191.8333623042852878
 30
0.0
 11
4579.4109729039410013
 21
191.8333623042852878
 31
0.0
  0
LINE
  5
D5A7
  8
0
 10
4579.3909729039405647
 20
191.8333623042852878
 30
0.0
 11
4578.4669844107365861
 21
191.8333623042852878
 31
0.0
  0
ARC
  5
D5A8
  8
0
 10
4581.1409729039405647
 20
191.8233623042852116
 30
0.0
 40
0.01
 50
0.0000000000162844
 51
90.0
  0
ARC
  5
D5A9
  8
0
 10
4581.2100729039411817
 20
192.2492623042853097
 30
0.0
 40
0.0591
 50
90.0
 51
180.0
  0
LINE
  5
D5AA
  8
0
 10
4579.400972903940783
 20
191.8233623042852969
 30
0.0
 11
4579.400972903940783
 21
190.8253623042853064
 31
0.0
  0
ARC
  5
D5AB
  8
0
 10
4579.3909729039405647
 20
190.8253623042853064
 30
0.0
 40
0.01
 50
270.0
 51
0.0
  0
ARC
  5
D5AC
  8
0
 10
4579.3909729039405647
 20
191.8233623042852969
 30
0.0
 40
0.01
 50
0.0
 51
90.0
  0
ARC
  5
D5AD
  8
0
 10
4579.4109729039410013
 20
191.8233623042852116
 30
0.0
 40
0.01
 50
90.0
 51
179.9999999999870113
  0
LINE
  5
D5AE
  8
0
 10
4578.9009729039398735
 20
187.3243647128333009
 30
0.0
 11
4578.9009729039398735
 21
191.3287756003371953
 31
0.0
  0
ARC
  5
D5AF
  8
0
 10
4581.8953741900031673
 20
187.3472165373187863
 30
0.0
 40
3.5020086160221511
 50
181.5699741727833043
 51
188.1082949626942025
  0
ARC
  5
D5B0
  8
0
 10
4578.3900770195414225
 20
187.3243647128333009
 30
0.0
 40
0.5108958844000018
 50
279.3796378739883721
 51
0.0
  0
ARC
  5
D5B1
  8
0
 10
4578.4669844107365861
 20
186.8587780088853094
 30
0.0
 40
0.039
 50
188.1082949626957941
 51
279.3796378739885995
  0
LINE
  5
D5B2
  8
0
 10
4581.2100729039411817
 20
190.3403623042852928
 30
0.0
 11
4581.3478232976412983
 21
190.3403623042852928
 31
0.0
  0
LINE
  5
D5B3
  8
0
 10
4581.1409729039405647
 20
190.8153623042852871
 30
0.0
 11
4580.6627839712900823
 21
190.8153623042852871
 31
0.0
  0
LINE
  5
D5B4
  8
0
 10
4580.458059561790833
 20
190.8153623042852871
 30
0.0
 11
4579.4109729039410013
 21
190.8153623042852871
 31
0.0
  0
LINE
  5
D5B5
  8
0
 10
4579.3909729039405647
 20
190.8153623042852871
 30
0.0
 11
4578.9009729039398735
 21
190.8153623042852871
 31
0.0
  0
ARC
  5
D5B6
  8
0
 10
4581.1409729039405647
 20
190.8253623042853064
 30
0.0
 40
0.01
 50
270.0
 51
359.9999999999836859
  0
ARC
  5
D5B7
  8
0
 10
4581.2100729039411817
 20
190.3994623042852936
 30
0.0
 40
0.0591
 50
179.9999999999984084
 51
270.0
  0
ARC
  5
D5B8
  8
0
 10
4579.4109729039410013
 20
190.8253623042853064
 30
0.0
 40
0.01
 50
180.0000000000129887
 51
270.0
  0
ARC
  5
D5B9
  8
0
 10
4580.5604217665395481
 20
190.3557372480995014
 30
0.0
 40
0.4708855627804291
 50
77.4446684992417147
 51
102.5553315007582995
  0
ENDSEC
  0
EOF
