  0
SECTION
  2
HEADER
  9
$ACADVER
  1
AC1009
  9
$INSBASE
 10
4605.9855641760541403
 20
202.265535178311211
 30
0.0
  9
$EXTMIN
 10
4601.715751843430553
 20
198.9973480471932135
 30
-0.0000000349181948
  9
$EXTMAX
 10
4610.1569383341538924
 20
202.2690613729033942
 30
0.0000000814935746
  9
$LIMMIN
 10
0.0
 20
0.0
  9
$LIMMAX
 10
11.6929133858000007
 20
8.2677165353999982
  9
$ORTHOMODE
 70
     0
  9
$REGENMODE
 70
     1
  9
$FILLMODE
 70
     1
  9
$QTEXTMODE
 70
     0
  9
$MIRRTEXT
 70
     0
  9
$DRAGMODE
 70
     2
  9
$LTSCALE
 40
0.6431102362
  9
$OSMODE
 70
  4095
  9
$ATTMODE
 70
     1
  9
$TEXTSIZE
 40
0.2
  9
$TRACEWID
 40
0.05
  9
$TEXTSTYLE
  7
STANDARD
  9
$CLAYER
  8
0
  9
$CELTYPE
  6
BYLAYER
  9
$CECOLOR
 62
   256
  9
$DIMSCALE
 40
1.0
  9
$DIMASZ
 40
0.1875
  9
$DIMEXO
 40
0.0625
  9
$DIMDLI
 40
0.4443307087
  9
$DIMRND
 40
0.0
  9
$DIMDLE
 40
0.0
  9
$DIMEXE
 40
0.125
  9
$DIMTP
 40
0.01
  9
$DIMTM
 40
0.01
  9
$DIMTXT
 40
2.0
  9
$DIMCEN
 40
0.1052362205
  9
$DIMTSZ
 40
0.0
  9
$DIMTOL
 70
     1
  9
$DIMLIM
 70
     0
  9
$DIMTIH
 70
     1
  9
$DIMTOH
 70
     1
  9
$DIMSE1
 70
     0
  9
$DIMSE2
 70
     0
  9
$DIMTAD
 70
     0
  9
$DIMZIN
 70
     0
  9
$DIMBLK
  1

  9
$DIMASO
 70
     1
  9
$DIMSHO
 70
     1
  9
$DIMPOST
  1
\X
  9
$DIMAPOST
  1

  9
$DIMALT
 70
     1
  9
$DIMALTD
 70
     2
  9
$DIMALTF
 40
25.3999999999999986
  9
$DIMLFAC
 40
1.0
  9
$DIMTOFL
 70
     0
  9
$DIMTVP
 40
0.0
  9
$DIMTIX
 70
     0
  9
$DIMSOXD
 70
     0
  9
$DIMSAH
 70
     0
  9
$DIMBLK1
  1

  9
$DIMBLK2
  1

  9
$DIMSTYLE
  2
STANDARD
  9
$DIMCLRD
 70
     0
  9
$DIMCLRE
 70
     0
  9
$DIMCLRT
 70
     0
  9
$DIMTFAC
 40
1.0
  9
$DIMGAP
 40
0.09
  9
$LUNITS
 70
     2
  9
$LUPREC
 70
     4
  9
$SKETCHINC
 40
0.1
  9
$FILLETRAD
 40
0.0
  9
$AUNITS
 70
     0
  9
$AUPREC
 70
     0
  9
$MENU
  1
.
  9
$ELEVATION
 40
0.0
  9
$PELEVATION
 40
0.0
  9
$THICKNESS
 40
0.0
  9
$LIMCHECK
 70
     0
  9
$BLIPMODE
 70
     0
  9
$CHAMFERA
 40
0.0
  9
$CHAMFERB
 40
0.0
  9
$SKPOLY
 70
     0
  9
$TDCREATE
 40
2458060.468368056230247
  9
$TDUPDATE
 40
2460181.6175115741789341
  9
$TDINDWG
 40
0.4779931713
  9
$TDUSRTIMER
 40
0.4779931713
  9
$USRTIMER
 70
     1
  9
$ANGBASE
 50
0.0
  9
$ANGDIR
 70
     0
  9
$PDMODE
 70
     0
  9
$PDSIZE
 40
0.3125
  9
$PLINEWID
 40
0.0
  9
$COORDS
 70
     1
  9
$SPLFRAME
 70
     0
  9
$SPLINETYPE
 70
     6
  9
$SPLINESEGS
 70
     8
  9
$ATTDIA
 70
     1
  9
$ATTREQ
 70
     1
  9
$HANDLING
 70
     1
  9
$HANDSEED
  5
D9D7
  9
$SURFTAB1
 70
     6
  9
$SURFTAB2
 70
     6
  9
$SURFTYPE
 70
     6
  9
$SURFU
 70
     6
  9
$SURFV
 70
     6
  9
$UCSNAME
  2

  9
$UCSORG
 10
0.0
 20
0.0
 30
0.0
  9
$UCSXDIR
 10
1.0
 20
0.0
 30
0.0
  9
$UCSYDIR
 10
0.0
 20
1.0
 30
0.0
  9
$PUCSNAME
  2

  9
$PUCSORG
 10
0.0
 20
0.0
 30
0.0
  9
$PUCSXDIR
 10
1.0
 20
0.0
 30
0.0
  9
$PUCSYDIR
 10
0.0
 20
1.0
 30
0.0
  9
$USERI1
 70
     0
  9
$USERI2
 70
     0
  9
$USERI3
 70
     0
  9
$USERI4
 70
     0
  9
$USERI5
 70
     0
  9
$USERR1
 40
0.0
  9
$USERR2
 40
0.0
  9
$USERR3
 40
0.0
  9
$USERR4
 40
0.0
  9
$USERR5
 40
0.0
  9
$WORLDVIEW
 70
     1
  9
$SHADEDGE
 70
     3
  9
$SHADEDIF
 70
    70
  9
$TILEMODE
 70
     1
  9
$MAXACTVP
 70
    64
  9
$PLIMCHECK
 70
     0
  9
$PEXTMIN
 10
1.0000000000000000E+20
 20
1.0000000000000000E+20
 30
1.0000000000000000E+20
  9
$PEXTMAX
 10
-1.0000000000000000E+20
 20
-1.0000000000000000E+20
 30
-1.0000000000000000E+20
  9
$PLIMMIN
 10
0.0
 20
0.0
  9
$PLIMMAX
 10
12.0
 20
9.0
  9
$UNITMODE
 70
     0
  9
$VISRETAIN
 70
     1
  9
$PLINEGEN
 70
     0
  9
$PSLTSCALE
 70
     1
  0
ENDSEC
  0
SECTION
  2
TABLES
  0
TABLE
  2
VPORT
 70
     1
  0
VPORT
  2
*ACTIVE
 70
     0
 10
0.0
 20
0.0
 11
1.0
 21
1.0
 12
802.392277705979609
 22
74.6379425132983556
 13
0.0
 23
0.0
 14
1.0
 24
1.0
 15
0.0
 25
0.0
 16
0.0
 26
0.0
 36
17.1152628219792007
 17
3803.5440673828129547
 27
125.9952621967499056
 37
0.0
 40
3.3533618153665499
 41
2.5251322751322749
 42
50.0
 43
0.0
 44
0.0
 50
0.0
 51
0.0
 71
     0
 72
   100
 73
     1
 74
     1
 75
     0
 76
     0
 77
     0
 78
     0
  0
ENDTAB
  0
TABLE
  2
LTYPE
 70
     2
  0
LTYPE
  2
CONTINUOUS
 70
     0
  3
Solid line
 72
    65
 73
     0
 40
0.0
  0
LTYPE
  2
PHANTOM2
 70
     0
  3
___ _ _ ___ _ _ ___ _ _ ___ _ _
 72
    65
 73
     6
 40
1.25
 49
0.625
 49
-0.125
 49
0.125
 49
-0.125
 49
0.125
 49
-0.125
  0
ENDTAB
  0
TABLE
  2
LAYER
 70
     2
  0
LAYER
  2
0
 70
     0
 62
   255
  6
CONTINUOUS
  0
LAYER
  2
DEFPOINTS
 70
     0
 62
     7
  6
CONTINUOUS
  0
ENDTAB
  0
TABLE
  2
STYLE
 70
     1
  0
STYLE
  2
STANDARD
 70
     0
 40
0.0
 41
0.8
 50
0.0
 71
     0
 42
0.2
  3
txt
  4

  0
ENDTAB
  0
TABLE
  2
VIEW
 70
     0
  0
ENDTAB
  0
TABLE
  2
UCS
 70
     0
  0
ENDTAB
  0
TABLE
  2
APPID
 70
     9
  0
APPID
  2
ACAD
 70
     0
  0
APPID
  2
ACAD_MLEADERVER
 70
     0
  0
APPID
  2
ACAD_EXEMPT_FROM_CAD_STANDARDS
 70
     0
  0
APPID
  2
ACAD_NAV_VCDISPLAY
 70
     0
  0
APPID
  2
ACAECLAYERSTANDARD
 70
     0
  0
APPID
  2
ACCMTRANSPARENCY
 70
     0
  0
APPID
  2
ACAD_DSTYLE_DIMJAG
 70
     0
  0
APPID
  2
ACAD_DSTYLE_DIMTALN
 70
     0
  0
APPID
  2
ACDBATTR
 70
     0
  0
ENDTAB
  0
TABLE
  2
DIMSTYLE
 70
     1
  0
DIMSTYLE
  2
STANDARD
 70
     0
  3

  4

  5

  6

  7

 40
1.0
 41
0.1875
 42
0.0625
 43
0.38
 44
0.125
 45
0.0
 46
0.0
 47
0.01
 48
0.01
140
0.15625
141
0.09
142
0.0
143
25.3999999999999986
144
1.0
145
0.0
146
1.0
147
0.09
 71
     1
 72
     0
 73
     1
 74
     1
 75
     0
 76
     0
 77
     0
 78
     4
170
     0
171
     2
172
     0
173
     0
174
     0
175
     0
176
     0
177
     0
178
     0
  0
ENDTAB
  0
ENDSEC
  0
SECTION
  2
BLOCKS
  0
BLOCK
  8
0
  2
$MODEL_SPACE
 70
     0
 10
0.0
 20
0.0
 30
0.0
  3
$MODEL_SPACE
  1

  0
ENDBLK
  5
21
  8
0
  0
BLOCK
 67
     1
  8
0
  2
$PAPER_SPACE
 70
     0
 10
0.0
 20
0.0
 30
0.0
  3
$PAPER_SPACE
  1

  0
ENDBLK
  5
1D
 67
     1
  8
0
  0
BLOCK
  8
0
  2
_FILLED
 70
     0
 10
0.0
 20
0.0
 30
0.0
  3
_FILLED
  1

  0
SOLID
  5
CEB5
  8
0
  6
BYBLOCK
 62
     0
 10
0.0
 20
0.0
 30
0.0
 11
-1.0
 21
0.1666666667
 31
0.0
 12
-1.0
 22
-0.1666666667
 32
0.0
 13
-1.0
 23
-0.1666666667
 33
0.0
  0
ENDBLK
  5
CEB6
  8
0
  6
BYBLOCK
 62
     0
  0
ENDSEC
  0
SECTION
  2
ENTITIES
  0
ATTDEF
  5
AB47
  8
DEFPOINTS
 10
4605.9802504537719869
 20
202.2641952234230018
 30
0.0
 40
0.001
  1
P34141-00
  3

  2
MODELNUMBER
 70
     0
1001
ACDBATTR
1070
     0
1070
     1
  0
ATTDEF
  5
AB48
  8
DEFPOINTS
 10
4605.9802504537719869
 20
202.2625285567563083
 30
0.0
 40
0.001
  1
002
  3

  2
TRADENAME
 70
     0
1001
ACDBATTR
1070
     0
1070
     1
  0
ATTDEF
  5
AB49
  8
DEFPOINTS
 10
4605.9802504537719869
 20
202.2608618900897
 30
0.0
 40
0.001
  1
TOILET PAPER HOLDER
  3

  2
PRODUCT
 70
     0
1001
ACDBATTR
1070
     0
1070
     1
  0
LINE
  5
D896
  8
0
 10
4601.9926276933038025
 20
202.1277847846112081
 30
0.0
 11
4601.9926276933038025
 21
202.265535178311211
 31
0.0
  0
LINE
  5
D897
  8
0
 10
4602.4676247011038868
 20
199.0743103868821891
 30
0.0
 11
4602.4676247011038868
 21
199.9976611626111094
 31
0.0
  0
LINE
  5
D898
  8
0
 10
4602.4676247011038868
 20
200.0255317944128137
 30
0.0
 11
4602.4676247011038868
 21
202.058684784611188
 31
0.0
  0
LINE
  5
D899
  8
0
 10
4601.9926276933038025
 20
202.265535178311211
 30
0.0
 11
4603.9606276933045592
 21
202.265535178311211
 31
0.0
  0
LINE
  5
D89A
  8
0
 10
4602.0517276933042012
 20
202.0686847846112073
 30
0.0
 11
4603.9015725752042272
 21
202.0686847846112073
 31
0.0
  0
ARC
  5
D89B
  8
0
 10
4602.477624701104105
 20
202.058684784611188
 30
0.0
 40
0.01
 50
90.0
 51
179.9999999999901945
  0
ARC
  5
D89C
  8
0
 10
4602.0517276933042012
 20
202.1277847846112081
 30
0.0
 40
0.0591
 50
179.9999999999984084
 51
270.0
  0
LINE
  5
D89D
  8
0
 10
4602.477624701104105
 20
200.0155317944127944
 30
0.0
 11
4603.4756306855042567
 21
200.0155317944127944
 31
0.0
  0
LINE
  5
D89E
  8
0
 10
4602.477624701104105
 20
200.007661162611214
 30
0.0
 11
4603.4756306855042567
 21
200.007661162611214
 31
0.0
  0
ARC
  5
D89F
  8
0
 10
4602.477624701104105
 20
200.0255317944128137
 30
0.0
 40
0.01
 50
179.9999999999901945
 51
270.0
  0
ARC
  5
D8A0
  8
0
 10
4602.477624701104105
 20
199.9976611626111094
 30
0.0
 40
0.01
 50
90.0
 51
179.9999999999951115
  0
ARC
  5
D8A1
  8
0
 10
4602.5267257443501876
 20
200.0195100132035861
 30
0.0
 40
0.0118771053078021
 50
273.9528827183381736
 51
340.4305927725941956
  0
LINE
  5
D8A2
  8
0
 10
4602.5010209337897322
 20
199.0357150594111886
 30
0.0
 11
4609.4701072835223385
 21
199.0357150594111886
 31
0.0
  0
LINE
  5
D8A3
  8
0
 10
4602.8903725005056913
 20
199.0013679715112005
 30
0.0
 11
4609.0807558516025892
 21
199.0013679715112005
 31
0.0
  0
ARC
  5
D8A4
  8
0
 10
4603.0064621555684425
 20
202.5413149941153961
 30
0.0
 40
3.5418500435304732
 50
261.7962041930542796
 51
268.1217051204106951
  0
ARC
  5
D8A5
  8
0
 10
4602.5066247011045562
 20
199.0743103868821891
 30
0.0
 40
0.039
 50
180.0
 51
261.7962041930542796
  0
LINE
  5
D8A6
  8
0
 10
4603.9606276933045592
 20
202.1277847846112081
 30
0.0
 11
4603.9606276933045592
 21
202.265535178311211
 31
0.0
  0
LINE
  5
D8A7
  8
0
 10
4603.4856306855035655
 20
200.0255317944128137
 30
0.0
 11
4603.4856306855035655
 21
202.058684784611188
 31
0.0
  0
ARC
  5
D8A8
  8
0
 10
4603.4756306855042567
 20
202.058684784611188
 30
0.0
 40
0.01
 50
0.0000000000097707
 51
90.0
  0
ARC
  5
D8A9
  8
0
 10
4603.9015276933041605
 20
202.1277847846112081
 30
0.0
 40
0.0591
 50
270.0
 51
0.0000000000016284
  0
ARC
  5
D8AA
  8
0
 10
4603.4756306855042567
 20
200.0255317944128137
 30
0.0
 40
0.01
 50
270.0
 51
0.0000000000097707
  0
ARC
  5
D8AB
  8
0
 10
4603.4756306855042567
 20
199.9976611626111094
 30
0.0
 40
0.01
 50
0.0000000000048853
 51
90.0
  0
ARC
  5
D8AC
  8
0
 10
4603.4265296422581741
 20
200.0195100132035861
 30
0.0
 40
0.0118771053078021
 50
199.5694072274058044
 51
266.0471172816618264
  0
ARC
  5
D8AD
  8
0
 10
4605.638670880650352
 20
199.973417608673401
 30
0.0
 40
2.1531766838378381
 50
179.3548682360145961
 51
183.7993341116759041
  0
ARC
  5
D8AE
  8
0
 10
4603.8806148257317545
 20
199.8566681764957025
 30
0.0
 40
0.3912483305423113
 50
183.7993341116759041
 51
206.7629745909094083
  0
ARC
  5
D8AF
  8
0
 10
4603.79160896245412
 20
199.8117802493449062
 30
0.0
 40
0.291563980206702
 50
206.7629745909094083
 51
250.205845161509103
  0
ARC
  5
D8B0
  8
0
 10
4603.8507625707197803
 20
199.9761383249515063
 30
0.0
 40
0.4662429039153582
 50
250.205845161509103
 51
267.3364194904528972
  0
ARC
  5
D8B1
  8
0
 10
4603.9546325927758517
 20
202.2088570284589935
 30
0.0
 40
2.701376410101048
 50
267.3364194904528972
 51
269.3375710071846925
  0
LINE
  5
D8B2
  8
0
 10
4603.9234011442522387
 20
199.507661162611214
 30
0.0
 11
4608.0477272078560418
 21
199.507661162611214
 31
0.0
  0
LINE
  5
D8B3
  8
0
 10
4609.9785006588035685
 20
202.1277847846112081
 30
0.0
 11
4609.9785006588035685
 21
202.265535178311211
 31
0.0
  0
LINE
  5
D8B4
  8
0
 10
4609.5035036510043938
 20
199.0743103868821891
 30
0.0
 11
4609.5035036510043938
 21
199.9976611626111094
 31
0.0
  0
LINE
  5
D8B5
  8
0
 10
4609.5035036510043938
 20
200.0255317944128137
 30
0.0
 11
4609.5035036510043938
 21
202.058684784611188
 31
0.0
  0
LINE
  5
D8B6
  8
0
 10
4609.9785006588035685
 20
202.265535178311211
 30
0.0
 11
4608.0105006588028118
 21
202.265535178311211
 31
0.0
  0
LINE
  5
D8B7
  8
0
 10
4609.9194006588040793
 20
202.0686847846112073
 30
0.0
 11
4608.0695557769040533
 21
202.0686847846112073
 31
0.0
  0
ARC
  5
D8B8
  8
0
 10
4609.4935036510041755
 20
202.058684784611188
 30
0.0
 40
0.01
 50
0.0000000000097707
 51
90.0
  0
ARC
  5
D8B9
  8
0
 10
4609.9194006588040793
 20
202.1277847846112081
 30
0.0
 40
0.0591
 50
270.0
 51
0.0000000000016284
  0
LINE
  5
D8BA
  8
0
 10
4609.4935036510041755
 20
200.0155317944127944
 30
0.0
 11
4608.4954976666040238
 21
200.0155317944127944
 31
0.0
  0
LINE
  5
D8BB
  8
0
 10
4609.4935036510041755
 20
200.007661162611214
 30
0.0
 11
4608.4954976666040238
 21
200.007661162611214
 31
0.0
  0
ARC
  5
D8BC
  8
0
 10
4609.4935036510041755
 20
200.0255317944128137
 30
0.0
 40
0.01
 50
270.0
 51
0.0000000000097707
  0
ARC
  5
D8BD
  8
0
 10
4609.4935036510041755
 20
199.9976611626111094
 30
0.0
 40
0.01
 50
0.0000000000048853
 51
90.0
  0
ARC
  5
D8BE
  8
0
 10
4609.4444026077590024
 20
200.0195100132035861
 30
0.0
 40
0.0118771053078021
 50
199.5694072274058044
 51
266.0471172816618264
  0
ARC
  5
D8BF
  8
0
 10
4608.9646661965389285
 20
202.5413149941153961
 30
0.0
 40
3.5418500435304732
 50
271.8782948795891912
 51
278.2037958069457204
  0
ARC
  5
D8C0
  8
0
 10
4609.4645036510028149
 20
199.0743103868821891
 30
0.0
 40
0.039
 50
278.2037958069457204
 51
0.0
  0
LINE
  5
D8C1
  8
0
 10
4608.0105006588028118
 20
202.1277847846112081
 30
0.0
 11
4608.0105006588028118
 21
202.265535178311211
 31
0.0
  0
LINE
  5
D8C2
  8
0
 10
4608.4854976666028961
 20
200.0255317944128137
 30
0.0
 11
4608.4854976666028961
 21
202.058684784611188
 31
0.0
  0
ARC
  5
D8C3
  8
0
 10
4608.4954976666040238
 20
202.058684784611188
 30
0.0
 40
0.01
 50
90.0
 51
179.9999999999901945
  0
ARC
  5
D8C4
  8
0
 10
4608.0696006588032105
 20
202.1277847846112081
 30
0.0
 40
0.0591
 50
179.9999999999984084
 51
270.0
  0
ARC
  5
D8C5
  8
0
 10
4608.4954976666040238
 20
200.0255317944128137
 30
0.0
 40
0.01
 50
179.9999999999901945
 51
270.0
  0
ARC
  5
D8C6
  8
0
 10
4608.4954976666040238
 20
199.9976611626111094
 30
0.0
 40
0.01
 50
90.0
 51
179.9999999999951115
  0
ARC
  5
D8C7
  8
0
 10
4608.5445987098491969
 20
200.0195100132035861
 30
0.0
 40
0.0118771053078021
 50
273.9528827183381736
 51
340.4305927725941956
  0
ARC
  5
D8C8
  8
0
 10
4606.3324574714579285
 20
199.973417608673401
 30
0.0
 40
2.1531766838378381
 50
356.2006658883240107
 51
0.6451317639854133
  0
ARC
  5
D8C9
  8
0
 10
4608.090513526374707
 20
199.8566681764957025
 30
0.0
 40
0.3912483305423113
 50
333.2370254090906201
 51
356.2006658883240107
  0
ARC
  5
D8CA
  8
0
 10
4608.179519389653251
 20
199.8117802493449062
 30
0.0
 40
0.291563980206702
 50
289.7941548384907833
 51
333.2370254090906201
  0
ARC
  5
D8CB
  8
0
 10
4608.1203657813866812
 20
199.9761383249515063
 30
0.0
 40
0.4662429039153582
 50
272.6635805095471028
 51
289.7941548384907833
  0
ARC
  5
D8CC
  8
0
 10
4608.0164957593324289
 20
202.2088570284589935
 30
0.0
 40
2.701376410101048
 50
270.6624289928153075
 51
272.6635805095471028
  0
ENDSEC
  0
EOF
