  0
SECTION
  2
HEADER
  9
$ACADVER
  1
AC1009
  9
$INSBASE
 10
6639.8673749913696156
 20
292.3332150458439855
 30
0.0
  9
$EXTMIN
 10
6637.0441053294425728
 20
283.2795756870439732
 30
0.0
  9
$EXTMAX
 10
6642.6906446532957489
 20
292.3380784661243865
 30
0.0
  9
$LIMMIN
 10
0.0
 20
0.0
  9
$LIMMAX
 10
11.6929133858000007
 20
8.2677165353999982
  9
$ORTHOMODE
 70
     0
  9
$REGENMODE
 70
     1
  9
$FILLMODE
 70
     1
  9
$QTEXTMODE
 70
     0
  9
$MIRRTEXT
 70
     0
  9
$DRAGMODE
 70
     2
  9
$LTSCALE
 40
0.6431102362
  9
$OSMODE
 70
  4095
  9
$ATTMODE
 70
     1
  9
$TEXTSIZE
 40
0.2
  9
$TRACEWID
 40
0.05
  9
$TEXTSTYLE
  7
STANDARD
  9
$CLAYER
  8
0
  9
$CELTYPE
  6
BYLAYER
  9
$CECOLOR
 62
   256
  9
$DIMSCALE
 40
1.0
  9
$DIMASZ
 40
0.1875
  9
$DIMEXO
 40
0.0625
  9
$DIMDLI
 40
0.4443307087
  9
$DIMRND
 40
0.0
  9
$DIMDLE
 40
0.0
  9
$DIMEXE
 40
0.125
  9
$DIMTP
 40
0.01
  9
$DIMTM
 40
0.01
  9
$DIMTXT
 40
2.0
  9
$DIMCEN
 40
0.1052362205
  9
$DIMTSZ
 40
0.0
  9
$DIMTOL
 70
     1
  9
$DIMLIM
 70
     0
  9
$DIMTIH
 70
     1
  9
$DIMTOH
 70
     1
  9
$DIMSE1
 70
     0
  9
$DIMSE2
 70
     0
  9
$DIMTAD
 70
     0
  9
$DIMZIN
 70
     0
  9
$DIMBLK
  1

  9
$DIMASO
 70
     1
  9
$DIMSHO
 70
     1
  9
$DIMPOST
  1
\X
  9
$DIMAPOST
  1

  9
$DIMALT
 70
     1
  9
$DIMALTD
 70
     2
  9
$DIMALTF
 40
25.3999999999999986
  9
$DIMLFAC
 40
1.0
  9
$DIMTOFL
 70
     0
  9
$DIMTVP
 40
0.0
  9
$DIMTIX
 70
     0
  9
$DIMSOXD
 70
     0
  9
$DIMSAH
 70
     0
  9
$DIMBLK1
  1

  9
$DIMBLK2
  1

  9
$DIMSTYLE
  2
STANDARD
  9
$DIMCLRD
 70
     0
  9
$DIMCLRE
 70
     0
  9
$DIMCLRT
 70
     0
  9
$DIMTFAC
 40
1.0
  9
$DIMGAP
 40
0.09
  9
$LUNITS
 70
     2
  9
$LUPREC
 70
     4
  9
$SKETCHINC
 40
0.1
  9
$FILLETRAD
 40
0.0
  9
$AUNITS
 70
     0
  9
$AUPREC
 70
     0
  9
$MENU
  1
.
  9
$ELEVATION
 40
0.0
  9
$PELEVATION
 40
0.0
  9
$THICKNESS
 40
0.0
  9
$LIMCHECK
 70
     0
  9
$BLIPMODE
 70
     0
  9
$CHAMFERA
 40
0.0
  9
$CHAMFERB
 40
0.0
  9
$SKPOLY
 70
     0
  9
$TDCREATE
 40
2458060.468368056230247
  9
$TDUPDATE
 40
2460914.568645833991468
  9
$TDINDWG
 40
1.1024491898
  9
$TDUSRTIMER
 40
1.1024491898
  9
$USRTIMER
 70
     1
  9
$ANGBASE
 50
0.0
  9
$ANGDIR
 70
     0
  9
$PDMODE
 70
     0
  9
$PDSIZE
 40
0.3125
  9
$PLINEWID
 40
0.0
  9
$COORDS
 70
     1
  9
$SPLFRAME
 70
     0
  9
$SPLINETYPE
 70
     6
  9
$SPLINESEGS
 70
     8
  9
$ATTDIA
 70
     1
  9
$ATTREQ
 70
     1
  9
$HANDLING
 70
     1
  9
$HANDSEED
  5
2FE2B
  9
$SURFTAB1
 70
     6
  9
$SURFTAB2
 70
     6
  9
$SURFTYPE
 70
     6
  9
$SURFU
 70
     6
  9
$SURFV
 70
     6
  9
$UCSNAME
  2

  9
$UCSORG
 10
0.0
 20
0.0
 30
0.0
  9
$UCSXDIR
 10
1.0
 20
0.0
 30
0.0
  9
$UCSYDIR
 10
0.0
 20
1.0
 30
0.0
  9
$PUCSNAME
  2

  9
$PUCSORG
 10
0.0
 20
0.0
 30
0.0
  9
$PUCSXDIR
 10
1.0
 20
0.0
 30
0.0
  9
$PUCSYDIR
 10
0.0
 20
1.0
 30
0.0
  9
$USERI1
 70
     0
  9
$USERI2
 70
     0
  9
$USERI3
 70
     0
  9
$USERI4
 70
     0
  9
$USERI5
 70
     0
  9
$USERR1
 40
0.0
  9
$USERR2
 40
0.0
  9
$USERR3
 40
0.0
  9
$USERR4
 40
0.0
  9
$USERR5
 40
0.0
  9
$WORLDVIEW
 70
     1
  9
$SHADEDGE
 70
     3
  9
$SHADEDIF
 70
    70
  9
$TILEMODE
 70
     1
  9
$MAXACTVP
 70
    64
  9
$PLIMCHECK
 70
     0
  9
$PEXTMIN
 10
1.0000000000000000E+20
 20
1.0000000000000000E+20
 30
1.0000000000000000E+20
  9
$PEXTMAX
 10
-1.0000000000000000E+20
 20
-1.0000000000000000E+20
 30
-1.0000000000000000E+20
  9
$PLIMMIN
 10
0.0
 20
0.0
  9
$PLIMMAX
 10
12.0
 20
9.0
  9
$UNITMODE
 70
     0
  9
$VISRETAIN
 70
     1
  9
$PLINEGEN
 70
     0
  9
$PSLTSCALE
 70
     1
  0
ENDSEC
  0
SECTION
  2
TABLES
  0
TABLE
  2
VPORT
 70
     1
  0
VPORT
  2
*ACTIVE
 70
     0
 10
0.0
 20
0.0
 11
1.0
 21
1.0
 12
2728.5020185460571156
 22
155.2292219740450889
 13
0.0
 23
0.0
 14
1.0
 24
1.0
 15
0.0
 25
0.0
 16
0.0
 26
0.0
 36
60.4960186965801583
 17
3911.3653564453120453
 27
132.5796051025390057
 37
0.0
 40
9.123002087923556
 41
2.2182448036951499
 42
50.0
 43
0.0
 44
0.0
 50
0.0
 51
0.0
 71
     0
 72
   100
 73
     1
 74
     1
 75
     0
 76
     0
 77
     0
 78
     0
  0
ENDTAB
  0
TABLE
  2
LTYPE
 70
     2
  0
LTYPE
  2
CONTINUOUS
 70
     0
  3
Solid line
 72
    65
 73
     0
 40
0.0
  0
LTYPE
  2
PHANTOM2
 70
     0
  3
___ _ _ ___ _ _ ___ _ _ ___ _ _
 72
    65
 73
     6
 40
1.25
 49
0.625
 49
-0.125
 49
0.125
 49
-0.125
 49
0.125
 49
-0.125
  0
ENDTAB
  0
TABLE
  2
LAYER
 70
     2
  0
LAYER
  2
0
 70
     0
 62
   255
  6
CONTINUOUS
  0
LAYER
  2
DEFPOINTS
 70
     0
 62
     7
  6
CONTINUOUS
  0
ENDTAB
  0
TABLE
  2
STYLE
 70
     1
  0
STYLE
  2
STANDARD
 70
     0
 40
0.0
 41
0.8
 50
0.0
 71
     0
 42
0.2
  3
txt
  4

  0
ENDTAB
  0
TABLE
  2
VIEW
 70
     0
  0
ENDTAB
  0
TABLE
  2
UCS
 70
     0
  0
ENDTAB
  0
TABLE
  2
APPID
 70
    11
  0
APPID
  2
ACAD
 70
     0
  0
APPID
  2
ACAD_MLEADERVER
 70
     0
  0
APPID
  2
ACAD_EXEMPT_FROM_CAD_STANDARDS
 70
     0
  0
APPID
  2
ACAD_NAV_VCDISPLAY
 70
     0
  0
APPID
  2
ACAECLAYERSTANDARD
 70
     0
  0
APPID
  2
ACCMTRANSPARENCY
 70
     0
  0
APPID
  2
ACAD_DSTYLE_DIMJAG
 70
     0
  0
APPID
  2
ACAD_DSTYLE_DIMTALN
 70
     0
  0
APPID
  2
ACDBATTR
 70
     0
  0
APPID
  2
ACADANNOTATIVE
 70
     0
  0
APPID
  2
DCO15
 70
     0
  0
ENDTAB
  0
TABLE
  2
DIMSTYLE
 70
     1
  0
DIMSTYLE
  2
STANDARD
 70
     0
  3

  4

  5

  6

  7

 40
1.0
 41
0.1875
 42
0.0625
 43
0.38
 44
0.125
 45
0.0
 46
0.0
 47
0.01
 48
0.01
140
0.15625
141
0.09
142
0.0
143
25.3999999999999986
144
1.0
145
0.0
146
1.0
147
0.09
 71
     1
 72
     0
 73
     1
 74
     1
 75
     0
 76
     0
 77
     0
 78
     4
170
     0
171
     2
172
     0
173
     0
174
     0
175
     0
176
     0
177
     0
178
     0
  0
ENDTAB
  0
ENDSEC
  0
SECTION
  2
BLOCKS
  0
BLOCK
  8
0
  2
$MODEL_SPACE
 70
     0
 10
0.0
 20
0.0
 30
0.0
  3
$MODEL_SPACE
  1

  0
ENDBLK
  5
21
  8
0
  0
BLOCK
 67
     1
  8
0
  2
$PAPER_SPACE
 70
     0
 10
0.0
 20
0.0
 30
0.0
  3
$PAPER_SPACE
  1

  0
ENDBLK
  5
1D
 67
     1
  8
0
  0
BLOCK
  8
0
  2
_FILLED
 70
     0
 10
0.0
 20
0.0
 30
0.0
  3
_FILLED
  1

  0
SOLID
  5
2EA64
  8
0
  6
BYBLOCK
 62
     0
 10
0.0
 20
0.0
 30
0.0
 11
-1.0
 21
0.1666666667
 31
0.0
 12
-1.0
 22
-0.1666666667
 32
0.0
 13
-1.0
 23
-0.1666666667
 33
0.0
  0
ENDBLK
  5
2EA65
  8
0
  6
BYBLOCK
 62
     0
  0
ENDSEC
  0
SECTION
  2
ENTITIES
  0
ATTDEF
  5
26A5B
  8
DEFPOINTS
 10
6639.8637479618737416
 20
292.3370784661245239
 30
0.0
 40
0.001
  1
P34211-BN
  3

  2
MODELNUMBER
 70
     0
1001
ACDBATTR
1070
     0
1070
     1
  0
ATTDEF
  5
26A5C
  8
DEFPOINTS
 10
6639.863622152215612
 20
292.3354116257452802
 30
0.0
 40
0.001
  1
KALLISTA
  3

  2
BRANDNAME
 70
     0
1001
ACDBATTR
1070
     0
1070
     1
  0
ATTDEF
  5
26A5D
  8
DEFPOINTS
 10
6639.8637479618737416
 20
292.3337451327911936
 30
0.0
 40
0.001
  1
TRAY
  3

  2
PRODUCT
 70
     0
1001
ACDBATTR
1070
     0
1070
     1
  0
LINE
  5
2FCBC
  8
0
 10
6637.0441053294425728
 20
284.1615756870439782
 30
0.0
 11
6637.0441053294425728
 21
289.5441322661171739
 31
0.0
  0
LINE
  5
2FCBD
  8
0
 10
6639.4736742039685851
 20
290.4261322661171789
 30
0.0
 11
6639.4736742039685851
 21
292.3332150458439855
 31
0.0
  0
LINE
  5
2FCBE
  8
0
 10
6639.4736742039685851
 20
292.3332150458439855
 30
0.0
 11
6640.2610757787697366
 21
292.3332150458439855
 31
0.0
  0
LINE
  5
2FCBF
  8
0
 10
6637.9261053294430894
 20
283.2795756870439732
 30
0.0
 11
6641.8086446532970513
 21
283.2795756870439732
 31
0.0
  0
LINE
  5
2FCC0
  8
0
 10
6642.6906446532957489
 20
284.1615756870439782
 30
0.0
 11
6642.6906446532957489
 21
289.5441322661171739
 31
0.0
  0
LINE
  5
2FCC1
  8
0
 10
6641.8086446532970513
 20
290.4261322661171789
 30
0.0
 11
6637.9261053294430894
 21
290.4261322661171789
 31
0.0
  0
ARC
  5
2FCC2
  8
0
 10
6637.9261053294430894
 20
284.1615756870439782
 30
0.0
 40
0.882
 50
180.0
 51
270.0
  0
ARC
  5
2FCC3
  8
0
 10
6641.8086446532970513
 20
284.1615756870439782
 30
0.0
 40
0.882
 50
270.0
 51
0.0
  0
ARC
  5
2FCC4
  8
0
 10
6641.8086446532970513
 20
289.5441322661171739
 30
0.0
 40
0.882
 50
0.0
 51
90.0
  0
ARC
  5
2FCC5
  8
0
 10
6637.9261053294430894
 20
289.5441322661171739
 30
0.0
 40
0.882
 50
90.0
 51
180.0
  0
LINE
  5
2FCC6
  8
0
 10
6640.2610757787697366
 20
290.4261322661171789
 30
0.0
 11
6640.2610757787697366
 21
292.3332150458439855
 31
0.0
  0
LINE
  5
2FCC7
  8
0
 10
6641.807501945138938
 20
290.3194511070570911
 30
0.0
 11
6637.9272480375975647
 21
290.3194511070570911
 31
0.0
  0
LINE
  5
2FCC8
  8
0
 10
6637.1507480375994419
 20
284.1627190767184175
 30
0.0
 11
6637.1507480375994419
 21
289.5429511070570925
 31
0.0
  0
LINE
  5
2FCC9
  8
0
 10
6637.9272480375975647
 20
283.3862190767184188
 30
0.0
 11
6641.807501945138938
 21
283.3862190767184188
 31
0.0
  0
LINE
  5
2FCCA
  8
0
 10
6642.5840019451397893
 20
284.1627190767184175
 30
0.0
 11
6642.5840019451397893
 21
289.5429511070570925
 31
0.0
  0
ARC
  5
2FCCB
  8
0
 10
6637.9272480375975647
 20
284.1627190767184175
 30
0.0
 40
0.7765
 50
180.0
 51
270.0
  0
ARC
  5
2FCCC
  8
0
 10
6641.807501945138938
 20
284.1627190767184175
 30
0.0
 40
0.7765
 50
270.0
 51
0.0
  0
ARC
  5
2FCCD
  8
0
 10
6641.807501945138938
 20
289.5429511070570925
 30
0.0
 40
0.7765
 50
0.0
 51
90.0
  0
ARC
  5
2FCCE
  8
0
 10
6637.9272480375975647
 20
289.5429511070570925
 30
0.0
 40
0.7765
 50
90.0
 51
180.0
  0
LINE
  5
2FCCF
  8
0
 10
6641.7427648267293989
 20
290.0219346770671791
 30
0.0
 11
6637.9919861846492495
 21
290.0219346770671791
 31
0.0
  0
LINE
  5
2FCD0
  8
0
 10
6637.4482851204902545
 20
284.2274561598072182
 30
0.0
 11
6637.4482861846490778
 21
289.4782347872571791
 31
0.0
  0
LINE
  5
2FCD1
  8
0
 10
6642.2864648267286611
 20
284.2274560496172171
 30
0.0
 11
6642.2864648267286611
 21
289.4782346770671779
 31
0.0
  0
LINE
  5
2FCD2
  8
0
 10
6637.9919851204904262
 20
283.6837560496172159
 30
0.0
 11
6641.7427648267293989
 21
283.6837560496172159
 31
0.0
  0
ARC
  5
2FCD3
  8
0
 10
6637.9919851204904262
 20
284.2274560496172171
 30
0.0
 40
0.5437
 50
179.9999883880479103
 51
270.0
  0
ARC
  5
2FCD4
  8
0
 10
6641.7427648267293989
 20
284.2274560496172171
 30
0.0
 40
0.5437
 50
270.0
 51
0.0
  0
ARC
  5
2FCD5
  8
0
 10
6641.7427648267293989
 20
289.4782346770671779
 30
0.0
 40
0.5437
 50
0.0
 51
90.0
  0
ARC
  5
2FCD6
  8
0
 10
6637.9919861846492495
 20
289.4782346770671779
 30
0.0
 40
0.5437
 50
90.0
 51
179.9999883880479103
  0
ENDSEC
  0
EOF
