  0
SECTION
  2
HEADER
  9
$ACADVER
  1
AC1009
  9
$INSBASE
 10
6561.3695032944688137
 20
326.5914397361333954
 30
0.0
  9
$EXTMIN
 10
6555.2007475281816369
 20
326.5616071933350213
 30
-0.0000000349181948
  9
$EXTMAX
 10
6567.7273032802140733
 20
333.7157872893905051
 30
0.0000000814935746
  9
$LIMMIN
 10
0.0
 20
0.0
  9
$LIMMAX
 10
11.6929133858000007
 20
8.2677165353999982
  9
$ORTHOMODE
 70
     0
  9
$REGENMODE
 70
     1
  9
$FILLMODE
 70
     1
  9
$QTEXTMODE
 70
     0
  9
$MIRRTEXT
 70
     0
  9
$DRAGMODE
 70
     2
  9
$LTSCALE
 40
0.6431102362
  9
$OSMODE
 70
  4095
  9
$ATTMODE
 70
     1
  9
$TEXTSIZE
 40
0.2
  9
$TRACEWID
 40
0.05
  9
$TEXTSTYLE
  7
STANDARD
  9
$CLAYER
  8
0
  9
$CELTYPE
  6
BYLAYER
  9
$CECOLOR
 62
   256
  9
$DIMSCALE
 40
1.0
  9
$DIMASZ
 40
0.1875
  9
$DIMEXO
 40
0.0625
  9
$DIMDLI
 40
0.4443307087
  9
$DIMRND
 40
0.0
  9
$DIMDLE
 40
0.0
  9
$DIMEXE
 40
0.125
  9
$DIMTP
 40
0.01
  9
$DIMTM
 40
0.01
  9
$DIMTXT
 40
2.0
  9
$DIMCEN
 40
0.1052362205
  9
$DIMTSZ
 40
0.0
  9
$DIMTOL
 70
     1
  9
$DIMLIM
 70
     0
  9
$DIMTIH
 70
     1
  9
$DIMTOH
 70
     1
  9
$DIMSE1
 70
     0
  9
$DIMSE2
 70
     0
  9
$DIMTAD
 70
     0
  9
$DIMZIN
 70
     0
  9
$DIMBLK
  1

  9
$DIMASO
 70
     1
  9
$DIMSHO
 70
     1
  9
$DIMPOST
  1
\X
  9
$DIMAPOST
  1

  9
$DIMALT
 70
     1
  9
$DIMALTD
 70
     2
  9
$DIMALTF
 40
25.3999999999999986
  9
$DIMLFAC
 40
1.0
  9
$DIMTOFL
 70
     0
  9
$DIMTVP
 40
0.0
  9
$DIMTIX
 70
     0
  9
$DIMSOXD
 70
     0
  9
$DIMSAH
 70
     0
  9
$DIMBLK1
  1

  9
$DIMBLK2
  1

  9
$DIMSTYLE
  2
STANDARD
  9
$DIMCLRD
 70
     0
  9
$DIMCLRE
 70
     0
  9
$DIMCLRT
 70
     0
  9
$DIMTFAC
 40
1.0
  9
$DIMGAP
 40
0.09
  9
$LUNITS
 70
     2
  9
$LUPREC
 70
     4
  9
$SKETCHINC
 40
0.1
  9
$FILLETRAD
 40
0.0
  9
$AUNITS
 70
     0
  9
$AUPREC
 70
     0
  9
$MENU
  1
.
  9
$ELEVATION
 40
0.0
  9
$PELEVATION
 40
0.0
  9
$THICKNESS
 40
0.0
  9
$LIMCHECK
 70
     0
  9
$BLIPMODE
 70
     0
  9
$CHAMFERA
 40
0.0
  9
$CHAMFERB
 40
0.0
  9
$SKPOLY
 70
     0
  9
$TDCREATE
 40
2458060.468368056230247
  9
$TDUPDATE
 40
2460295.8589004632085562
  9
$TDINDWG
 40
0.8358288194
  9
$TDUSRTIMER
 40
0.8358288194
  9
$USRTIMER
 70
     1
  9
$ANGBASE
 50
0.0
  9
$ANGDIR
 70
     0
  9
$PDMODE
 70
     0
  9
$PDSIZE
 40
0.3125
  9
$PLINEWID
 40
0.0
  9
$COORDS
 70
     1
  9
$SPLFRAME
 70
     0
  9
$SPLINETYPE
 70
     6
  9
$SPLINESEGS
 70
     8
  9
$ATTDIA
 70
     1
  9
$ATTREQ
 70
     1
  9
$HANDLING
 70
     1
  9
$HANDSEED
  5
36FB1
  9
$SURFTAB1
 70
     6
  9
$SURFTAB2
 70
     6
  9
$SURFTYPE
 70
     6
  9
$SURFU
 70
     6
  9
$SURFV
 70
     6
  9
$UCSNAME
  2

  9
$UCSORG
 10
0.0
 20
0.0
 30
0.0
  9
$UCSXDIR
 10
1.0
 20
0.0
 30
0.0
  9
$UCSYDIR
 10
0.0
 20
1.0
 30
0.0
  9
$PUCSNAME
  2

  9
$PUCSORG
 10
0.0
 20
0.0
 30
0.0
  9
$PUCSXDIR
 10
1.0
 20
0.0
 30
0.0
  9
$PUCSYDIR
 10
0.0
 20
1.0
 30
0.0
  9
$USERI1
 70
     0
  9
$USERI2
 70
     0
  9
$USERI3
 70
     0
  9
$USERI4
 70
     0
  9
$USERI5
 70
     0
  9
$USERR1
 40
0.0
  9
$USERR2
 40
0.0
  9
$USERR3
 40
0.0
  9
$USERR4
 40
0.0
  9
$USERR5
 40
0.0
  9
$WORLDVIEW
 70
     1
  9
$SHADEDGE
 70
     3
  9
$SHADEDIF
 70
    70
  9
$TILEMODE
 70
     1
  9
$MAXACTVP
 70
    64
  9
$PLIMCHECK
 70
     0
  9
$PEXTMIN
 10
1.0000000000000000E+20
 20
1.0000000000000000E+20
 30
1.0000000000000000E+20
  9
$PEXTMAX
 10
-1.0000000000000000E+20
 20
-1.0000000000000000E+20
 30
-1.0000000000000000E+20
  9
$PLIMMIN
 10
0.0
 20
0.0
  9
$PLIMMAX
 10
12.0
 20
9.0
  9
$UNITMODE
 70
     0
  9
$VISRETAIN
 70
     1
  9
$PLINEGEN
 70
     0
  9
$PSLTSCALE
 70
     1
  0
ENDSEC
  0
SECTION
  2
TABLES
  0
TABLE
  2
VPORT
 70
     1
  0
VPORT
  2
*ACTIVE
 70
     0
 10
0.0
 20
0.0
 11
1.0
 21
1.0
 12
2650.0986689588858098
 22
197.5590921388237007
 13
0.0
 23
0.0
 14
1.0
 24
1.0
 15
0.0
 25
0.0
 16
0.0
 26
0.0
 36
60.4960186965801583
 17
3911.3653564453120453
 27
132.5796051025390057
 37
0.0
 40
7.2187290894033254
 41
2.8524096385542159
 42
50.0
 43
0.0
 44
0.0
 50
0.0
 51
0.0
 71
     0
 72
   100
 73
     1
 74
     1
 75
     0
 76
     0
 77
     0
 78
     0
  0
ENDTAB
  0
TABLE
  2
LTYPE
 70
     2
  0
LTYPE
  2
CONTINUOUS
 70
     0
  3
Solid line
 72
    65
 73
     0
 40
0.0
  0
LTYPE
  2
PHANTOM2
 70
     0
  3
___ _ _ ___ _ _ ___ _ _ ___ _ _
 72
    65
 73
     6
 40
1.25
 49
0.625
 49
-0.125
 49
0.125
 49
-0.125
 49
0.125
 49
-0.125
  0
ENDTAB
  0
TABLE
  2
LAYER
 70
     2
  0
LAYER
  2
0
 70
     0
 62
   255
  6
CONTINUOUS
  0
LAYER
  2
DEFPOINTS
 70
     0
 62
     7
  6
CONTINUOUS
  0
ENDTAB
  0
TABLE
  2
STYLE
 70
     1
  0
STYLE
  2
STANDARD
 70
     0
 40
0.0
 41
0.8
 50
0.0
 71
     0
 42
0.2
  3
txt
  4

  0
ENDTAB
  0
TABLE
  2
VIEW
 70
     0
  0
ENDTAB
  0
TABLE
  2
UCS
 70
     0
  0
ENDTAB
  0
TABLE
  2
APPID
 70
    11
  0
APPID
  2
ACAD
 70
     0
  0
APPID
  2
ACAD_MLEADERVER
 70
     0
  0
APPID
  2
ACAD_EXEMPT_FROM_CAD_STANDARDS
 70
     0
  0
APPID
  2
ACAD_NAV_VCDISPLAY
 70
     0
  0
APPID
  2
ACAECLAYERSTANDARD
 70
     0
  0
APPID
  2
ACCMTRANSPARENCY
 70
     0
  0
APPID
  2
ACAD_DSTYLE_DIMJAG
 70
     0
  0
APPID
  2
ACAD_DSTYLE_DIMTALN
 70
     0
  0
APPID
  2
ACDBATTR
 70
     0
  0
APPID
  2
ACADANNOTATIVE
 70
     0
  0
APPID
  2
DCO15
 70
     0
  0
ENDTAB
  0
TABLE
  2
DIMSTYLE
 70
     1
  0
DIMSTYLE
  2
STANDARD
 70
     0
  3

  4

  5

  6

  7

 40
1.0
 41
0.1875
 42
0.0625
 43
0.38
 44
0.125
 45
0.0
 46
0.0
 47
0.01
 48
0.01
140
0.15625
141
0.09
142
0.0
143
25.3999999999999986
144
1.0
145
0.0
146
1.0
147
0.09
 71
     1
 72
     0
 73
     1
 74
     1
 75
     0
 76
     0
 77
     0
 78
     4
170
     0
171
     2
172
     0
173
     0
174
     0
175
     0
176
     0
177
     0
178
     0
  0
ENDTAB
  0
ENDSEC
  0
SECTION
  2
BLOCKS
  0
BLOCK
  8
0
  2
$MODEL_SPACE
 70
     0
 10
0.0
 20
0.0
 30
0.0
  3
$MODEL_SPACE
  1

  0
ENDBLK
  5
21
  8
0
  0
BLOCK
 67
     1
  8
0
  2
$PAPER_SPACE
 70
     0
 10
0.0
 20
0.0
 30
0.0
  3
$PAPER_SPACE
  1

  0
ENDBLK
  5
1D
 67
     1
  8
0
  0
BLOCK
  8
0
  2
_FILLED
 70
     0
 10
0.0
 20
0.0
 30
0.0
  3
_FILLED
  1

  0
SOLID
  5
2853B
  8
0
  6
BYBLOCK
 62
     0
 10
0.0
 20
0.0
 30
0.0
 11
-1.0
 21
0.1666666667
 31
0.0
 12
-1.0
 22
-0.1666666667
 32
0.0
 13
-1.0
 23
-0.1666666667
 33
0.0
  0
ENDBLK
  5
2853C
  8
0
  6
BYBLOCK
 62
     0
  0
ENDSEC
  0
SECTION
  2
ENTITIES
  0
ATTDEF
  5
2842F
  8
DEFPOINTS
 10
6561.3695066287682494
 20
326.5894099479515944
 30
0.0
 40
0.001
  1
P34231-LV
  3

  2
MODELNUMBER
 70
     0
1001
ACDBATTR
1070
     0
1070
     1
  0
ATTDEF
  5
28430
  8
DEFPOINTS
 10
6561.3693808191101198
 20
326.5877431075725212
 30
0.0
 40
0.001
  1
GUISE
  3

  2
TRADENAME
 70
     0
1001
ACDBATTR
1070
     0
1070
     1
  0
ATTDEF
  5
28431
  8
DEFPOINTS
 10
6561.3695066287682494
 20
326.5860766146183209
 30
0.0
 40
0.001
  1
BATHROOM SINK FAUCET
  3

  2
PRODUCT
 70
     0
1001
ACDBATTR
1070
     0
1070
     1
  0
LINE
  5
3699D
  8
0
 10
6562.3801032944693361
 20
326.5914397361333954
 30
0.0
 11
6560.3589032944701103
 21
326.5914397361333954
 31
0.0
  0
LINE
  5
3699E
  8
0
 10
6558.3719083369687723
 20
326.5914397361333954
 30
0.0
 11
6556.367098251968855
 21
326.5914397361333954
 31
0.0
  0
LINE
  5
3699F
  8
0
 10
6558.3304456377964016
 20
326.8670297361334747
 30
0.0
 11
6556.4085609511421353
 21
326.8670297361334747
 31
0.0
  0
LINE
  5
369A0
  8
0
 10
6562.3801032944693361
 20
326.9714397361333909
 30
0.0
 11
6560.3589032944701103
 21
326.9714397361333909
 31
0.0
  0
LINE
  5
369A1
  8
0
 10
6557.8799126960720969
 20
327.0634397361334891
 30
0.0
 11
6556.859093892864621
 21
327.0634397361334891
 31
0.0
  0
LINE
  5
369A2
  8
0
 10
6561.9797082944687645
 20
327.2074397632304112
 30
0.0
 11
6560.7592982944697724
 21
327.2074397632304112
 31
0.0
  0
LINE
  5
369A3
  8
0
 10
6557.757557495769106
 20
328.5205697361334956
 30
0.0
 11
6555.5967965768868453
 21
328.5205697361334956
 31
0.0
  0
LINE
  5
369A4
  8
0
 10
6561.9797082944687645
 20
333.7044397361335086
 30
0.0
 11
6560.7592982944697724
 21
333.7044397361335086
 31
0.0
  0
LINE
  5
369A5
  8
0
 10
6562.019108294468424
 20
332.2034397361334754
 30
0.0
 11
6560.7198982944692034
 21
332.2034397361334754
 31
0.0
  0
LINE
  5
369A6
  8
0
 10
6560.7198982944692034
 20
333.6650397361335081
 30
0.0
 11
6560.7198982944692034
 21
326.9714397361333909
 31
0.0
  0
ARC
  5
369A7
  8
0
 10
6560.7592982944697724
 20
333.6650397361335081
 30
0.0
 40
0.0394
 50
90.0
 51
180.0
  0
ARC
  5
369A8
  8
0
 10
6560.7592982944697724
 20
327.1680397632304107
 30
0.0
 40
0.0394
 50
90.0
 51
180.0
  0
LINE
  5
369A9
  8
0
 10
6560.3195032944686318
 20
326.9320397361333903
 30
0.0
 11
6560.3195032944686318
 21
326.6308397361333959
 31
0.0
  0
ARC
  5
369AA
  8
0
 10
6560.3589032944701103
 20
326.9320397361333903
 30
0.0
 40
0.0394
 50
90.0
 51
180.0
  0
ARC
  5
369AB
  8
0
 10
6560.3589032944701103
 20
326.6308397361333959
 30
0.0
 40
0.0394
 50
180.0
 51
270.0
  0
LINE
  5
369AC
  8
0
 10
6556.3691624513739953
 20
326.8279735616291077
 30
0.0
 11
6556.367098251968855
 21
326.5914397361333954
 31
0.0
  0
ARC
  5
369AD
  8
0
 10
6556.4085609511421353
 20
326.8276297361334741
 30
0.0
 40
0.0394
 50
90.0
 51
179.5000000044672959
  0
LINE
  5
369AE
  8
0
 10
6556.8237014993319463
 20
327.4834378849590735
 30
0.0
 11
6556.8190055933773692
 21
326.9453403398557043
 31
0.0
  0
ARC
  5
369AF
  8
0
 10
6556.859093892864621
 20
327.0240397361334885
 30
0.0
 40
0.0394
 50
90.0
 51
179.5000000192640925
  0
ARC
  5
369B0
  8
0
 10
6556.7400086014549743
 20
326.9460297361334824
 30
0.0
 40
0.079
 50
270.0
 51
359.500000019264121
  0
LINE
  5
369B1
  8
0
 10
6556.6737072108708162
 20
327.6347468652335237
 30
0.0
 11
6555.5916841781290714
 21
327.6347468652335237
 31
0.0
  0
LINE
  5
369B2
  8
0
 10
6558.3698441375627226
 20
326.8279735616291077
 30
0.0
 11
6558.3719083369687723
 21
326.5914397361333954
 31
0.0
  0
ARC
  5
369B3
  8
0
 10
6558.3304456377964016
 20
326.8276297361334741
 30
0.0
 40
0.0394
 50
0.4999999955327242
 51
90.0
  0
LINE
  5
369B4
  8
0
 10
6557.9075517842302361
 20
328.3718787164078208
 30
0.0
 11
6557.9200009955602582
 21
326.9453403398557043
 31
0.0
  0
ARC
  5
369B5
  8
0
 10
6557.8799126960720969
 20
327.0240397361334885
 30
0.0
 40
0.0394
 50
0.4999999807358812
 51
90.0
  0
ARC
  5
369B6
  8
0
 10
6557.9989979874817436
 20
326.9460297361334824
 30
0.0
 40
0.079
 50
180.4999999807359075
 51
270.0
  0
ARC
  5
369B7
  8
0
 10
6556.6737072108708162
 20
327.4847468652334896
 30
0.0
 40
0.15
 50
359.500000019264121
 51
90.0
  0
ARC
  5
369B8
  8
0
 10
6557.757557495769106
 20
328.3705697361335183
 30
0.0
 40
0.15
 50
0.4999999807358812
 51
90.0
  0
LINE
  5
369B9
  8
0
 10
6555.4468022884284437
 20
328.3718787164621062
 30
0.0
 11
6555.4416898896688508
 21
327.786055845562089
 31
0.0
  0
ARC
  5
369BA
  8
0
 10
6555.5967965768868453
 20
328.3705697361335183
 30
0.0
 40
0.15
 50
90.0
 51
179.499999998523208
  0
ARC
  5
369BB
  8
0
 10
6555.5916841781290714
 20
327.784746865233501
 30
0.0
 40
0.15
 50
179.499999998523208
 51
270.0
  0
LINE
  5
369DA
  8
0
 10
6564.367098251968855
 20
326.5914397361333954
 30
0.0
 11
6566.3719083369678629
 21
326.5914397361333954
 31
0.0
  0
LINE
  5
369DB
  8
0
 10
6564.4085609511421353
 20
326.8670297361334747
 30
0.0
 11
6566.3304456377945826
 21
326.8670297361334747
 31
0.0
  0
LINE
  5
369DC
  8
0
 10
6564.8590938928673495
 20
327.0634397361334891
 30
0.0
 11
6565.8799126960720969
 21
327.0634397361334891
 31
0.0
  0
LINE
  5
369DD
  8
0
 10
6564.9814490931694309
 20
328.5205697361334956
 30
0.0
 11
6567.1422100120498726
 21
328.5205697361334956
 31
0.0
  0
LINE
  5
369DE
  8
0
 10
6562.019108294468424
 20
333.6650397361335081
 30
0.0
 11
6562.019108294468424
 21
326.9714397361333909
 31
0.0
  0
ARC
  5
369DF
  8
0
 10
6561.9797082944687645
 20
333.6650397361335081
 30
0.0
 40
0.0394
 50
0.0
 51
90.0
  0
ARC
  5
369E0
  8
0
 10
6561.9797082944687645
 20
327.1680397632304107
 30
0.0
 40
0.0394
 50
0.0
 51
90.0
  0
LINE
  5
369E1
  8
0
 10
6562.4195032944699051
 20
326.9320397361333903
 30
0.0
 11
6562.4195032944699051
 21
326.6308397361333959
 31
0.0
  0
ARC
  5
369E2
  8
0
 10
6562.3801032944693361
 20
326.9320397361333903
 30
0.0
 40
0.0394
 50
0.0
 51
90.0
  0
ARC
  5
369E3
  8
0
 10
6562.3801032944693361
 20
326.6308397361333959
 30
0.0
 40
0.0394
 50
270.0
 51
0.0
  0
LINE
  5
369E4
  8
0
 10
6566.3698441375654511
 20
326.8279735616291077
 30
0.0
 11
6566.3719083369678629
 21
326.5914397361333954
 31
0.0
  0
ARC
  5
369E5
  8
0
 10
6566.3304456377945826
 20
326.8276297361334741
 30
0.0
 40
0.0394
 50
0.4999999955327242
 51
90.0
  0
LINE
  5
369E6
  8
0
 10
6565.9153050896065906
 20
327.4834378849590735
 30
0.0
 11
6565.9200009955602582
 21
326.9453403398557043
 31
0.0
  0
ARC
  5
369E7
  8
0
 10
6565.8799126960720969
 20
327.0240397361334885
 30
0.0
 40
0.0394
 50
0.4999999807358812
 51
90.0
  0
ARC
  5
369E8
  8
0
 10
6565.9989979874817436
 20
326.9460297361334824
 30
0.0
 40
0.079
 50
180.4999999807359075
 51
270.0
  0
LINE
  5
369E9
  8
0
 10
6566.0652993780668112
 20
327.6347468652335237
 30
0.0
 11
6567.1473224108076465
 21
327.6347468652335237
 31
0.0
  0
LINE
  5
369EA
  8
0
 10
6564.3691624513739953
 20
326.8279735616291077
 30
0.0
 11
6564.367098251968855
 21
326.5914397361333954
 31
0.0
  0
ARC
  5
369EB
  8
0
 10
6564.4085609511421353
 20
326.8276297361334741
 30
0.0
 40
0.0394
 50
90.0
 51
179.5000000044672959
  0
LINE
  5
369EC
  8
0
 10
6564.8314548047083008
 20
328.3718787164078208
 30
0.0
 11
6564.8190055933782787
 21
326.9453403398557043
 31
0.0
  0
ARC
  5
369ED
  8
0
 10
6564.8590938928673495
 20
327.0240397361334885
 30
0.0
 40
0.0394
 50
90.0
 51
179.5000000192640925
  0
ARC
  5
369EE
  8
0
 10
6564.7400086014558838
 20
326.9460297361334824
 30
0.0
 40
0.079
 50
270.0
 51
359.500000019264121
  0
ARC
  5
369EF
  8
0
 10
6566.0652993780668112
 20
327.4847468652334896
 30
0.0
 40
0.15
 50
90.0
 51
180.4999999807359075
  0
ARC
  5
369F0
  8
0
 10
6564.9814490931694309
 20
328.3705697361335183
 30
0.0
 40
0.15
 50
90.0
 51
179.5000000192640925
  0
LINE
  5
369F1
  8
0
 10
6567.2922043005100932
 20
328.3718787164621062
 30
0.0
 11
6567.2973166992687766
 21
327.786055845562089
 31
0.0
  0
ARC
  5
369F2
  8
0
 10
6567.1422100120498726
 20
328.3705697361335183
 30
0.0
 40
0.15
 50
0.5000000014767731
 51
90.0
  0
ARC
  5
369F3
  8
0
 10
6567.1473224108076465
 20
327.784746865233501
 30
0.0
 40
0.15
 50
270.0
 51
0.5000000014767731
  0
ENDSEC
  0
EOF
