  0
SECTION
  2
HEADER
  9
$ACADVER
  1
AC1009
  9
$INSBASE
 10
3083.742928605256111
 20
98.3743954626892787
 30
0.0
  9
$EXTMIN
 10
3077.585025073190991
 20
92.186014394699896
 30
-0.0000000000112498
  9
$EXTMAX
 10
3089.8429353928631826
 20
99.6770405417039456
 30
0.0000000000002956
  9
$LIMMIN
 10
0.0
 20
0.0
  9
$LIMMAX
 10
11.6929133858000007
 20
8.2677165353999982
  9
$ORTHOMODE
 70
     0
  9
$REGENMODE
 70
     1
  9
$FILLMODE
 70
     1
  9
$QTEXTMODE
 70
     0
  9
$MIRRTEXT
 70
     0
  9
$DRAGMODE
 70
     2
  9
$LTSCALE
 40
0.6431102362
  9
$OSMODE
 70
  3839
  9
$ATTMODE
 70
     1
  9
$TEXTSIZE
 40
0.2
  9
$TRACEWID
 40
0.05
  9
$TEXTSTYLE
  7
STANDARD
  9
$CLAYER
  8
0
  9
$CELTYPE
  6
BYLAYER
  9
$CECOLOR
 62
   256
  9
$DIMSCALE
 40
1.0
  9
$DIMASZ
 40
0.1875
  9
$DIMEXO
 40
0.0625
  9
$DIMDLI
 40
0.4443307087
  9
$DIMRND
 40
0.0
  9
$DIMDLE
 40
0.0
  9
$DIMEXE
 40
0.125
  9
$DIMTP
 40
0.01
  9
$DIMTM
 40
0.01
  9
$DIMTXT
 40
2.0
  9
$DIMCEN
 40
0.1052362205
  9
$DIMTSZ
 40
0.0
  9
$DIMTOL
 70
     1
  9
$DIMLIM
 70
     0
  9
$DIMTIH
 70
     1
  9
$DIMTOH
 70
     1
  9
$DIMSE1
 70
     0
  9
$DIMSE2
 70
     0
  9
$DIMTAD
 70
     0
  9
$DIMZIN
 70
     0
  9
$DIMBLK
  1

  9
$DIMASO
 70
     1
  9
$DIMSHO
 70
     1
  9
$DIMPOST
  1
\X
  9
$DIMAPOST
  1

  9
$DIMALT
 70
     1
  9
$DIMALTD
 70
     2
  9
$DIMALTF
 40
25.3999999999999986
  9
$DIMLFAC
 40
1.0
  9
$DIMTOFL
 70
     0
  9
$DIMTVP
 40
0.0
  9
$DIMTIX
 70
     0
  9
$DIMSOXD
 70
     0
  9
$DIMSAH
 70
     0
  9
$DIMBLK1
  1

  9
$DIMBLK2
  1

  9
$DIMSTYLE
  2
STANDARD
  9
$DIMCLRD
 70
     0
  9
$DIMCLRE
 70
     0
  9
$DIMCLRT
 70
     0
  9
$DIMTFAC
 40
1.0
  9
$DIMGAP
 40
0.09
  9
$LUNITS
 70
     2
  9
$LUPREC
 70
     4
  9
$SKETCHINC
 40
0.1
  9
$FILLETRAD
 40
0.0
  9
$AUNITS
 70
     0
  9
$AUPREC
 70
     0
  9
$MENU
  1
.
  9
$ELEVATION
 40
0.0
  9
$PELEVATION
 40
0.0
  9
$THICKNESS
 40
0.0
  9
$LIMCHECK
 70
     0
  9
$BLIPMODE
 70
     0
  9
$CHAMFERA
 40
0.0
  9
$CHAMFERB
 40
0.0
  9
$SKPOLY
 70
     0
  9
$TDCREATE
 40
2458060.468368056230247
  9
$TDUPDATE
 40
2460381.7023263890296221
  9
$TDINDWG
 40
0.4757246528
  9
$TDUSRTIMER
 40
0.4757246528
  9
$USRTIMER
 70
     1
  9
$ANGBASE
 50
0.0
  9
$ANGDIR
 70
     0
  9
$PDMODE
 70
     0
  9
$PDSIZE
 40
0.3125
  9
$PLINEWID
 40
0.0
  9
$COORDS
 70
     1
  9
$SPLFRAME
 70
     0
  9
$SPLINETYPE
 70
     6
  9
$SPLINESEGS
 70
     8
  9
$ATTDIA
 70
     1
  9
$ATTREQ
 70
     1
  9
$HANDLING
 70
     1
  9
$HANDSEED
  5
302D2
  9
$SURFTAB1
 70
     6
  9
$SURFTAB2
 70
     6
  9
$SURFTYPE
 70
     6
  9
$SURFU
 70
     6
  9
$SURFV
 70
     6
  9
$UCSNAME
  2

  9
$UCSORG
 10
0.0
 20
0.0
 30
0.0
  9
$UCSXDIR
 10
1.0
 20
0.0
 30
0.0
  9
$UCSYDIR
 10
0.0
 20
1.0
 30
0.0
  9
$PUCSNAME
  2

  9
$PUCSORG
 10
0.0
 20
0.0
 30
0.0
  9
$PUCSXDIR
 10
1.0
 20
0.0
 30
0.0
  9
$PUCSYDIR
 10
0.0
 20
1.0
 30
0.0
  9
$USERI1
 70
     0
  9
$USERI2
 70
     0
  9
$USERI3
 70
     0
  9
$USERI4
 70
     0
  9
$USERI5
 70
     0
  9
$USERR1
 40
0.0
  9
$USERR2
 40
0.0
  9
$USERR3
 40
0.0
  9
$USERR4
 40
0.0
  9
$USERR5
 40
0.0
  9
$WORLDVIEW
 70
     1
  9
$SHADEDGE
 70
     3
  9
$SHADEDIF
 70
    70
  9
$TILEMODE
 70
     1
  9
$MAXACTVP
 70
    64
  9
$PLIMCHECK
 70
     0
  9
$PEXTMIN
 10
1.0000000000000000E+20
 20
1.0000000000000000E+20
 30
1.0000000000000000E+20
  9
$PEXTMAX
 10
-1.0000000000000000E+20
 20
-1.0000000000000000E+20
 30
-1.0000000000000000E+20
  9
$PLIMMIN
 10
0.0
 20
0.0
  9
$PLIMMAX
 10
12.0
 20
9.0
  9
$UNITMODE
 70
     0
  9
$VISRETAIN
 70
     1
  9
$PLINEGEN
 70
     0
  9
$PSLTSCALE
 70
     1
  0
ENDSEC
  0
SECTION
  2
TABLES
  0
TABLE
  2
VPORT
 70
     1
  0
VPORT
  2
*ACTIVE
 70
     0
 10
0.0
 20
0.0
 11
1.0
 21
1.0
 12
-719.8300871497857543
 22
-30.063734728547999
 13
0.0
 23
0.0
 14
1.0
 24
1.0
 15
0.0
 25
0.0
 16
0.0
 26
0.0
 36
17.1152628219792007
 17
3803.5440673828129547
 27
125.9952621967499056
 37
0.0
 40
7.540910893820949
 41
2.1211111111111101
 42
50.0
 43
0.0
 44
0.0
 50
0.0
 51
0.0
 71
     0
 72
   100
 73
     1
 74
     1
 75
     0
 76
     0
 77
     0
 78
     0
  0
ENDTAB
  0
TABLE
  2
LTYPE
 70
     2
  0
LTYPE
  2
CONTINUOUS
 70
     0
  3
Solid line
 72
    65
 73
     0
 40
0.0
  0
LTYPE
  2
PHANTOM2
 70
     0
  3
___ _ _ ___ _ _ ___ _ _ ___ _ _
 72
    65
 73
     6
 40
1.25
 49
0.625
 49
-0.125
 49
0.125
 49
-0.125
 49
0.125
 49
-0.125
  0
ENDTAB
  0
TABLE
  2
LAYER
 70
     2
  0
LAYER
  2
0
 70
     0
 62
   255
  6
CONTINUOUS
  0
LAYER
  2
DEFPOINTS
 70
     0
 62
     7
  6
CONTINUOUS
  0
ENDTAB
  0
TABLE
  2
STYLE
 70
     1
  0
STYLE
  2
STANDARD
 70
     0
 40
0.0
 41
0.8
 50
0.0
 71
     0
 42
0.2
  3
txt
  4

  0
ENDTAB
  0
TABLE
  2
VIEW
 70
     0
  0
ENDTAB
  0
TABLE
  2
UCS
 70
     0
  0
ENDTAB
  0
TABLE
  2
APPID
 70
    10
  0
APPID
  2
ACAD
 70
     0
  0
APPID
  2
ACAD_MLEADERVER
 70
     0
  0
APPID
  2
ACAD_EXEMPT_FROM_CAD_STANDARDS
 70
     0
  0
APPID
  2
ACAD_NAV_VCDISPLAY
 70
     0
  0
APPID
  2
ACAECLAYERSTANDARD
 70
     0
  0
APPID
  2
ACCMTRANSPARENCY
 70
     0
  0
APPID
  2
ACAD_DSTYLE_DIMJAG
 70
     0
  0
APPID
  2
ACAD_DSTYLE_DIMTALN
 70
     0
  0
APPID
  2
ACDBATTR
 70
     0
  0
APPID
  2
DCO15
 70
     0
  0
ENDTAB
  0
TABLE
  2
DIMSTYLE
 70
     1
  0
DIMSTYLE
  2
STANDARD
 70
     0
  3

  4

  5

  6

  7

 40
1.0
 41
0.1875
 42
0.0625
 43
0.38
 44
0.125
 45
0.0
 46
0.0
 47
0.01
 48
0.01
140
0.15625
141
0.09
142
0.0
143
25.3999999999999986
144
1.0
145
0.0
146
1.0
147
0.09
 71
     1
 72
     0
 73
     1
 74
     1
 75
     0
 76
     0
 77
     0
 78
     4
170
     0
171
     2
172
     0
173
     0
174
     0
175
     0
176
     0
177
     0
178
     0
  0
ENDTAB
  0
ENDSEC
  0
SECTION
  2
BLOCKS
  0
BLOCK
  8
0
  2
$MODEL_SPACE
 70
     0
 10
0.0
 20
0.0
 30
0.0
  3
$MODEL_SPACE
  1

  0
ENDBLK
  5
21
  8
0
  0
BLOCK
 67
     1
  8
0
  2
$PAPER_SPACE
 70
     0
 10
0.0
 20
0.0
 30
0.0
  3
$PAPER_SPACE
  1

  0
ENDBLK
  5
1D
 67
     1
  8
0
  0
BLOCK
  8
0
  2
_FILLED
 70
     0
 10
0.0
 20
0.0
 30
0.0
  3
_FILLED
  1

  0
SOLID
  5
2F622
  8
0
  6
BYBLOCK
 62
     0
 10
0.0
 20
0.0
 30
0.0
 11
-1.0
 21
0.1666666667
 31
0.0
 12
-1.0
 22
-0.1666666667
 32
0.0
 13
-1.0
 23
-0.1666666667
 33
0.0
  0
ENDBLK
  5
2F623
  8
0
  6
BYBLOCK
 62
     0
  0
ENDSEC
  0
SECTION
  2
ENTITIES
  0
ARC
  5
300C5
  8
0
 10
3077.8545054521428028
 20
99.3980376832188028
 30
0.0
 40
0.0393902528930901
 50
179.9858209193587868
 51
270.0119974368478211
  0
LINE
  5
300C6
  8
0
 10
3077.8151152004561482
 20
99.398047431189255
 30
0.0
 11
3077.8151639921197784
 21
99.5952080551347194
 31
0.0
  0
ARC
  5
300C7
  8
0
 10
3077.8541737035297956
 20
99.595198401337214
 30
0.0
 40
0.0390097126044955
 50
90.0943156334281952
 51
179.9858209193587868
  0
LINE
  5
300C8
  8
0
 10
3077.8541094889551459
 20
99.6342080610892822
 30
0.0
 11
3080.2502981411557812
 21
99.6342080610892822
 31
0.0
  0
ARC
  5
300C9
  8
0
 10
3080.2502987013358506
 20
99.5952101092176321
 30
0.0
 40
0.0389979518756699
 50
359.9971484103213015
 51
90.0008230170030572
  0
ARC
  5
300CA
  8
0
 10
3258.0287716448119681
 20
99.5863621406030859
 30
0.0
 40
177.7394752117801033
 50
179.9971484103213015
 51
180.3906904394713138
  0
ARC
  5
300CB
  8
0
 10
3079.7429286052552015
 20
98.3706416364857716
 30
0.0
 40
0.5505127423094485
 50
179.6093095605286862
 51
0.3906904394713244
  0
LINE
  5
300CC
  8
0
 10
3079.192428661356189
 20
98.3743954626892787
 30
0.0
 11
3079.1922655295670666
 21
99.3586474311892545
 31
0.0
  0
LINE
  5
300CD
  8
0
 10
3077.854513700255211
 20
99.3586474311892545
 30
0.0
 11
3080.2502413997422082
 21
99.3586474311892971
 31
0.0
  0
ARC
  5
300CE
  8
0
 10
3080.2502413997422082
 20
99.3980437669027452
 30
0.0
 40
0.0393963357134268
 50
270.0
 51
353.7132735183936916
  0
ARC
  5
300CF
  8
0
 10
3079.7429286052552015
 20
98.3743954626892787
 30
0.0
 40
1.0024050424999991
 50
123.3202128705841005
 51
56.9449289496480375
  0
ARC
  5
300D0
  8
0
 10
3079.3399286051549097
 20
98.9383954626892859
 30
0.0
 40
0.079999999999997
 50
90.0
 51
180.0
  0
LINE
  5
300D1
  8
0
 10
3079.3399286051549097
 20
99.0183954626892699
 30
0.0
 11
3080.1459280521557957
 21
99.0183954626892415
 31
0.0
  0
ARC
  5
300D2
  8
0
 10
3080.1459280521557957
 20
98.9383949095873305
 30
0.0
 40
0.0800005531019146
 50
0.000396127352098
 51
90.0
  0
LINE
  5
300D3
  8
0
 10
3080.2259286052549214
 20
98.9383954626892859
 30
0.0
 11
3080.22593250459704
 21
98.3743954627027506
 31
0.0
  0
ARC
  5
300D4
  8
0
 10
3079.7429305549258061
 20
98.3743921233593568
 30
0.0
 40
0.4830019496824316
 50
179.9996038758453096
 51
0.000396127352098
  0
LINE
  5
300D5
  8
0
 10
3079.2599286052550269
 20
98.3743954626758068
 30
0.0
 11
3079.2599286051549825
 21
98.9383954626892859
 31
0.0
  0
ARC
  5
300D6
  8
0
 10
3084.3531336052551524
 20
99.6345072731892856
 30
0.0
 40
0.0394000000000041
 50
0.0
 51
90.0
  0
LINE
  5
300D7
  8
0
 10
3084.3531336052551524
 20
99.6739072731892861
 30
0.0
 11
3083.132723605254796
 21
99.673907273189414
 31
0.0
  0
ARC
  5
300D8
  8
0
 10
3083.132723605254796
 20
99.6345072731894135
 30
0.0
 40
0.039399999999997
 50
90.0
 51
180.0000000008060113
  0
LINE
  5
300D9
  8
0
 10
3083.0933236052551365
 20
99.634507273188845
 30
0.0
 11
3083.0933236053588189
 21
92.2326931004892714
 31
0.0
  0
ARC
  5
300DA
  8
0
 10
3083.1327236053598426
 20
92.2326931004898256
 30
0.0
 40
0.0394000000005557
 50
180.0000000008043912
 51
269.9999998477860004
  0
LINE
  5
300DB
  8
0
 10
3083.132723605254796
 20
92.1932931004892708
 30
0.0
 11
3084.3531336052551524
 21
92.1932930972469649
 31
0.0
  0
ARC
  5
300DC
  8
0
 10
3084.353133605360199
 20
92.2326930971422883
 30
0.0
 40
0.0393999998953252
 50
269.9999998477860004
 51
0.0000048672057806
  0
LINE
  5
300DD
  8
0
 10
3084.3925336052548118
 20
92.2326931004892714
 30
0.0
 11
3084.3925336052548118
 21
99.6345072731892856
 31
0.0
  0
ARC
  5
300DE
  8
0
 10
3083.742928605256111
 20
98.3743954626892787
 30
0.0
 40
1.0499999999999989
 50
308.2191799279150928
 51
51.7808200720849214
  0
ARC
  5
300DF
  8
0
 10
3083.742928605256111
 20
98.3743954626892787
 30
0.0
 40
1.0499999999999989
 50
128.2191799274862092
 51
231.780820074113393
  0
ARC
  5
300FF
  8
0
 10
3089.631351758368055
 20
99.3980376832188028
 30
0.0
 40
0.0393902528930901
 50
269.9880025631521789
 51
0.0141790806411686
  0
LINE
  5
30100
  8
0
 10
3089.6707420100551644
 20
99.398047431189255
 30
0.0
 11
3089.6706932183910794
 21
99.5952080551347194
 31
0.0
  0
ARC
  5
30101
  8
0
 10
3089.6316835069810622
 20
99.595198401337214
 30
0.0
 40
0.0390097126044955
 50
0.0141790806411686
 51
89.9056843665718048
  0
LINE
  5
30102
  8
0
 10
3089.6317477215561667
 20
99.6342080610892822
 30
0.0
 11
3087.2355590693550766
 21
99.6342080610892822
 31
0.0
  0
ARC
  5
30103
  8
0
 10
3087.2355585091750072
 20
99.5952101092176321
 30
0.0
 40
0.0389979518756699
 50
89.999176982996957
 51
180.002851589677789
  0
ARC
  5
30104
  8
0
 10
2909.4570855656988897
 20
99.5863621406030859
 30
0.0
 40
177.7394752117801033
 50
359.6093095605286862
 51
0.002851589678663
  0
ARC
  5
30105
  8
0
 10
3087.7429286052552015
 20
98.3706416364857716
 30
0.0
 40
0.5505127423094485
 50
179.6093095605286862
 51
0.3906904394713244
  0
LINE
  5
30106
  8
0
 10
3088.2934285491551236
 20
98.3743954626892787
 30
0.0
 11
3088.2935916809428818
 21
99.3586474311892545
 31
0.0
  0
LINE
  5
30107
  8
0
 10
3089.6313435102561016
 20
99.3586474311892545
 30
0.0
 11
3087.2356158107681949
 21
99.3586474311892971
 31
0.0
  0
ARC
  5
30108
  8
0
 10
3087.2356158107681949
 20
99.3980437669027452
 30
0.0
 40
0.0393963357134268
 50
186.2867264816063084
 51
270.0
  0
ARC
  5
30109
  8
0
 10
3087.7429286052552015
 20
98.3743954626892787
 30
0.0
 40
1.0024050424999991
 50
123.055071050351998
 51
56.6797871294158213
  0
ARC
  5
3010A
  8
0
 10
3088.1459286053550386
 20
98.9383954626892859
 30
0.0
 40
0.079999999999997
 50
0.0
 51
90.0
  0
LINE
  5
3010B
  8
0
 10
3088.1459286053550386
 20
99.0183954626892699
 30
0.0
 11
3087.3399291583559716
 21
99.0183954626892415
 31
0.0
  0
ARC
  5
3010C
  8
0
 10
3087.3399291583559716
 20
98.9383949095873305
 30
0.0
 40
0.0800005531019146
 50
90.0
 51
179.9996038726478957
  0
LINE
  5
3010D
  8
0
 10
3087.2599286052550269
 20
98.9383954626892859
 30
0.0
 11
3087.2599247059138179
 21
98.3743954627027506
 31
0.0
  0
ARC
  5
3010E
  8
0
 10
3087.7429266555850518
 20
98.3743921233593568
 30
0.0
 40
0.4830019496824316
 50
179.9996038726478957
 51
0.0003961241546482
  0
LINE
  5
3010F
  8
0
 10
3088.2259286052558309
 20
98.3743954626758068
 30
0.0
 11
3088.2259286053558753
 21
98.9383954626892859
 31
0.0
  0
ATTDEF
  5
3013F
  8
DEFPOINTS
 10
3083.7312760364798123
 20
98.3729476679123565
 30
0.0
 40
0.001
  1
P34231-TWW
  3

  2
MODELNUMBER
 70
     0
1001
ACDBATTR
1070
     0
1070
     1
  0
ATTDEF
  5
30140
  8
DEFPOINTS
 10
3083.7312760364798123
 20
98.3712810012456913
 30
0.0
 40
0.001
  1
BRASSWARE
  3

  2
TRADENAME
 70
     0
1001
ACDBATTR
1070
     0
1070
     1
  0
ATTDEF
  5
30141
  8
DEFPOINTS
 10
3083.7312760364798123
 20
98.3696143345790261
 30
0.0
 40
0.001
  1
BATHROOM SINK FAUCET
  3

  2
PRODUCT
 70
     0
1001
ACDBATTR
1070
     0
1070
     1
  0
ENDSEC
  0
EOF
