  0
SECTION
  2
HEADER
  9
$ACADVER
  1
AC1009
  9
$INSBASE
 10
6574.8838445411365683
 20
327.6805000996312742
 30
0.0
  9
$EXTMIN
 10
6568.702542179035845
 20
327.6750756765613914
 30
0.0
  9
$EXTMAX
 10
6576.1833563516356662
 20
336.3675500996312735
 30
0.0
  9
$LIMMIN
 10
0.0
 20
0.0
  9
$LIMMAX
 10
11.6929133858000007
 20
8.2677165353999982
  9
$ORTHOMODE
 70
     1
  9
$REGENMODE
 70
     1
  9
$FILLMODE
 70
     1
  9
$QTEXTMODE
 70
     0
  9
$MIRRTEXT
 70
     0
  9
$DRAGMODE
 70
     2
  9
$LTSCALE
 40
0.6431102362
  9
$OSMODE
 70
  4095
  9
$ATTMODE
 70
     1
  9
$TEXTSIZE
 40
0.2
  9
$TRACEWID
 40
0.05
  9
$TEXTSTYLE
  7
STANDARD
  9
$CLAYER
  8
0
  9
$CELTYPE
  6
BYLAYER
  9
$CECOLOR
 62
   256
  9
$DIMSCALE
 40
1.0
  9
$DIMASZ
 40
0.1875
  9
$DIMEXO
 40
0.0625
  9
$DIMDLI
 40
0.4443307087
  9
$DIMRND
 40
0.0
  9
$DIMDLE
 40
0.0
  9
$DIMEXE
 40
0.125
  9
$DIMTP
 40
0.01
  9
$DIMTM
 40
0.01
  9
$DIMTXT
 40
2.0
  9
$DIMCEN
 40
0.1052362205
  9
$DIMTSZ
 40
0.0
  9
$DIMTOL
 70
     1
  9
$DIMLIM
 70
     0
  9
$DIMTIH
 70
     1
  9
$DIMTOH
 70
     1
  9
$DIMSE1
 70
     0
  9
$DIMSE2
 70
     0
  9
$DIMTAD
 70
     0
  9
$DIMZIN
 70
     0
  9
$DIMBLK
  1

  9
$DIMASO
 70
     1
  9
$DIMSHO
 70
     1
  9
$DIMPOST
  1
\X
  9
$DIMAPOST
  1

  9
$DIMALT
 70
     1
  9
$DIMALTD
 70
     2
  9
$DIMALTF
 40
25.3999999999999986
  9
$DIMLFAC
 40
1.0
  9
$DIMTOFL
 70
     0
  9
$DIMTVP
 40
0.0
  9
$DIMTIX
 70
     0
  9
$DIMSOXD
 70
     0
  9
$DIMSAH
 70
     0
  9
$DIMBLK1
  1

  9
$DIMBLK2
  1

  9
$DIMSTYLE
  2
STANDARD
  9
$DIMCLRD
 70
     0
  9
$DIMCLRE
 70
     0
  9
$DIMCLRT
 70
     0
  9
$DIMTFAC
 40
1.0
  9
$DIMGAP
 40
0.09
  9
$LUNITS
 70
     2
  9
$LUPREC
 70
     4
  9
$SKETCHINC
 40
0.1
  9
$FILLETRAD
 40
0.0
  9
$AUNITS
 70
     0
  9
$AUPREC
 70
     0
  9
$MENU
  1
.
  9
$ELEVATION
 40
0.0
  9
$PELEVATION
 40
0.0
  9
$THICKNESS
 40
0.0
  9
$LIMCHECK
 70
     0
  9
$BLIPMODE
 70
     0
  9
$CHAMFERA
 40
0.0
  9
$CHAMFERB
 40
0.0
  9
$SKPOLY
 70
     0
  9
$TDCREATE
 40
2458060.468368056230247
  9
$TDUPDATE
 40
2460299.5951388888061047
  9
$TDINDWG
 40
0.8321366898
  9
$TDUSRTIMER
 40
0.8321366898
  9
$USRTIMER
 70
     1
  9
$ANGBASE
 50
0.0
  9
$ANGDIR
 70
     0
  9
$PDMODE
 70
     0
  9
$PDSIZE
 40
0.3125
  9
$PLINEWID
 40
0.0
  9
$COORDS
 70
     1
  9
$SPLFRAME
 70
     0
  9
$SPLINETYPE
 70
     6
  9
$SPLINESEGS
 70
     8
  9
$ATTDIA
 70
     1
  9
$ATTREQ
 70
     1
  9
$HANDLING
 70
     1
  9
$HANDSEED
  5
36B92
  9
$SURFTAB1
 70
     6
  9
$SURFTAB2
 70
     6
  9
$SURFTYPE
 70
     6
  9
$SURFU
 70
     6
  9
$SURFV
 70
     6
  9
$UCSNAME
  2

  9
$UCSORG
 10
0.0
 20
0.0
 30
0.0
  9
$UCSXDIR
 10
1.0
 20
0.0
 30
0.0
  9
$UCSYDIR
 10
0.0
 20
1.0
 30
0.0
  9
$PUCSNAME
  2

  9
$PUCSORG
 10
0.0
 20
0.0
 30
0.0
  9
$PUCSXDIR
 10
1.0
 20
0.0
 30
0.0
  9
$PUCSYDIR
 10
0.0
 20
1.0
 30
0.0
  9
$USERI1
 70
     0
  9
$USERI2
 70
     0
  9
$USERI3
 70
     0
  9
$USERI4
 70
     0
  9
$USERI5
 70
     0
  9
$USERR1
 40
0.0
  9
$USERR2
 40
0.0
  9
$USERR3
 40
0.0
  9
$USERR4
 40
0.0
  9
$USERR5
 40
0.0
  9
$WORLDVIEW
 70
     1
  9
$SHADEDGE
 70
     3
  9
$SHADEDIF
 70
    70
  9
$TILEMODE
 70
     1
  9
$MAXACTVP
 70
    64
  9
$PLIMCHECK
 70
     0
  9
$PEXTMIN
 10
1.0000000000000000E+20
 20
1.0000000000000000E+20
 30
1.0000000000000000E+20
  9
$PEXTMAX
 10
-1.0000000000000000E+20
 20
-1.0000000000000000E+20
 30
-1.0000000000000000E+20
  9
$PLIMMIN
 10
0.0
 20
0.0
  9
$PLIMMAX
 10
12.0
 20
9.0
  9
$UNITMODE
 70
     0
  9
$VISRETAIN
 70
     1
  9
$PLINEGEN
 70
     0
  9
$PSLTSCALE
 70
     1
  0
ENDSEC
  0
SECTION
  2
TABLES
  0
TABLE
  2
VPORT
 70
     1
  0
VPORT
  2
*ACTIVE
 70
     0
 10
0.0
 20
0.0
 11
1.0
 21
1.0
 12
2661.0775928200241651
 22
199.4417077855572131
 13
0.0
 23
0.0
 14
1.0
 24
1.0
 15
0.0
 25
0.0
 16
0.0
 26
0.0
 36
60.4960186965801583
 17
3911.3653564453120453
 27
132.5796051025390057
 37
0.0
 40
8.7645573014162164
 41
2.5251322751322749
 42
50.0
 43
0.0
 44
0.0
 50
0.0
 51
0.0
 71
     0
 72
   100
 73
     1
 74
     1
 75
     0
 76
     0
 77
     0
 78
     0
  0
ENDTAB
  0
TABLE
  2
LTYPE
 70
     2
  0
LTYPE
  2
CONTINUOUS
 70
     0
  3
Solid line
 72
    65
 73
     0
 40
0.0
  0
LTYPE
  2
PHANTOM2
 70
     0
  3
___ _ _ ___ _ _ ___ _ _ ___ _ _
 72
    65
 73
     6
 40
1.25
 49
0.625
 49
-0.125
 49
0.125
 49
-0.125
 49
0.125
 49
-0.125
  0
ENDTAB
  0
TABLE
  2
LAYER
 70
     2
  0
LAYER
  2
0
 70
     0
 62
   255
  6
CONTINUOUS
  0
LAYER
  2
DEFPOINTS
 70
     0
 62
     7
  6
CONTINUOUS
  0
ENDTAB
  0
TABLE
  2
STYLE
 70
     1
  0
STYLE
  2
STANDARD
 70
     0
 40
0.0
 41
0.8
 50
0.0
 71
     0
 42
0.2
  3
txt
  4

  0
ENDTAB
  0
TABLE
  2
VIEW
 70
     0
  0
ENDTAB
  0
TABLE
  2
UCS
 70
     0
  0
ENDTAB
  0
TABLE
  2
APPID
 70
    11
  0
APPID
  2
ACAD
 70
     0
  0
APPID
  2
ACAD_MLEADERVER
 70
     0
  0
APPID
  2
ACAD_EXEMPT_FROM_CAD_STANDARDS
 70
     0
  0
APPID
  2
ACAD_NAV_VCDISPLAY
 70
     0
  0
APPID
  2
ACAECLAYERSTANDARD
 70
     0
  0
APPID
  2
ACCMTRANSPARENCY
 70
     0
  0
APPID
  2
ACAD_DSTYLE_DIMJAG
 70
     0
  0
APPID
  2
ACAD_DSTYLE_DIMTALN
 70
     0
  0
APPID
  2
ACDBATTR
 70
     0
  0
APPID
  2
ACADANNOTATIVE
 70
     0
  0
APPID
  2
DCO15
 70
     0
  0
ENDTAB
  0
TABLE
  2
DIMSTYLE
 70
     1
  0
DIMSTYLE
  2
STANDARD
 70
     0
  3

  4

  5

  6

  7

 40
1.0
 41
0.1875
 42
0.0625
 43
0.38
 44
0.125
 45
0.0
 46
0.0
 47
0.01
 48
0.01
140
0.15625
141
0.09
142
0.0
143
25.3999999999999986
144
1.0
145
0.0
146
1.0
147
0.09
 71
     1
 72
     0
 73
     1
 74
     1
 75
     0
 76
     0
 77
     0
 78
     4
170
     0
171
     2
172
     0
173
     0
174
     0
175
     0
176
     0
177
     0
178
     0
  0
ENDTAB
  0
ENDSEC
  0
SECTION
  2
BLOCKS
  0
BLOCK
  8
0
  2
$MODEL_SPACE
 70
     0
 10
0.0
 20
0.0
 30
0.0
  3
$MODEL_SPACE
  1

  0
ENDBLK
  5
21
  8
0
  0
BLOCK
 67
     1
  8
0
  2
$PAPER_SPACE
 70
     0
 10
0.0
 20
0.0
 30
0.0
  3
$PAPER_SPACE
  1

  0
ENDBLK
  5
1D
 67
     1
  8
0
  0
BLOCK
  8
0
  2
_FILLED
 70
     0
 10
0.0
 20
0.0
 30
0.0
  3
_FILLED
  1

  0
SOLID
  5
2853B
  8
0
  6
BYBLOCK
 62
     0
 10
0.0
 20
0.0
 30
0.0
 11
-1.0
 21
0.1666666667
 31
0.0
 12
-1.0
 22
-0.1666666667
 32
0.0
 13
-1.0
 23
-0.1666666667
 33
0.0
  0
ENDBLK
  5
2853C
  8
0
  6
BYBLOCK
 62
     0
  0
ENDSEC
  0
SECTION
  2
ENTITIES
  0
ATTDEF
  5
2842F
  8
DEFPOINTS
 10
6574.8841691480129157
 20
327.6784090098947217
 30
0.0
 40
0.001
  1
P34232-LV
  3

  2
MODELNUMBER
 70
     0
1001
ACDBATTR
1070
     0
1070
     1
  0
ATTDEF
  5
28430
  8
DEFPOINTS
 10
6574.8840433383556956
 20
327.6767421695154781
 30
0.0
 40
0.001
  1
GUISE
  3

  2
TRADENAME
 70
     0
1001
ACDBATTR
1070
     0
1070
     1
  0
ATTDEF
  5
28431
  8
DEFPOINTS
 10
6574.8841691480129157
 20
327.6750756765613914
 30
0.0
 40
0.001
  1
BATHROOM SINK FAUCET
  3

  2
PRODUCT
 70
     0
1001
ACDBATTR
1070
     0
1070
     1
  0
LINE
  5
36A13
  8
0
 10
6573.8732445411360459
 20
327.6805000996312742
 30
0.0
 11
6575.8944445411361812
 21
327.6805000996312742
 31
0.0
  0
LINE
  5
36A14
  8
0
 10
6573.9229022029048792
 20
327.9560900996312967
 30
0.0
 11
6575.6276992295252057
 21
327.9560900996312967
 31
0.0
  0
LINE
  5
36A15
  8
0
 10
6573.8338445411363864
 20
327.7199000996312748
 30
0.0
 11
6573.8338445411363864
 21
328.021100099631326
 31
0.0
  0
ARC
  5
36A16
  8
0
 10
6573.8732445411360459
 20
327.7199000996312748
 30
0.0
 40
0.0394
 50
179.9999999999934914
 51
270.0
  0
LINE
  5
36A17
  8
0
 10
6573.8835037031358297
 20
327.9170339251426753
 30
0.0
 11
6573.881439503636102
 21
327.6805000996312742
 31
0.0
  0
ARC
  5
36A18
  8
0
 10
6573.9229022029048792
 20
327.9166900996312961
 30
0.0
 40
0.0394
 50
90.0
 51
179.4999999813913121
  0
LINE
  5
36A19
  8
0
 10
6573.8732445411360459
 20
328.0605000996313265
 30
0.0
 11
6574.333574611036056
 21
328.0605000996313265
 31
0.0
  0
ARC
  5
36A1A
  8
0
 10
6573.8732445411360459
 20
328.021100099631326
 30
0.0
 40
0.0394
 50
90.0
 51
180.0
  0
LINE
  5
36A1B
  8
0
 10
6574.3333468450218788
 20
328.0344007032286981
 30
0.0
 11
6574.3340366448674104
 21
328.113443925178899
 31
0.0
  0
ARC
  5
36A1C
  8
0
 10
6574.2543498531003934
 20
328.0350900996311907
 30
0.0
 40
0.079
 50
270.0
 51
359.499999928790487
  0
LINE
  5
36A1D
  8
0
 10
6574.3734351446355504
 20
328.1525000996313111
 30
0.0
 11
6575.5530965096359068
 21
328.1525000996313111
 31
0.0
  0
ARC
  5
36A1E
  8
0
 10
6574.3734351446355504
 20
328.1131000996313105
 30
0.0
 40
0.0394
 50
90.0
 51
179.4999999287838932
  0
LINE
  5
36A1F
  8
0
 10
6574.273639541135708
 20
328.2965001267281764
 30
0.0
 11
6575.1828563516373833
 21
328.2965001267281764
 31
0.0
  0
LINE
  5
36A20
  8
0
 10
6574.234239541135139
 20
328.0605000996313265
 30
0.0
 11
6574.234239541135139
 21
328.2571001267281758
 31
0.0
  0
ARC
  5
36A21
  8
0
 10
6574.273639541135708
 20
328.2571001267281758
 30
0.0
 40
0.0394
 50
90.0
 51
180.0000000000032117
  0
LINE
  5
36A22
  8
0
 10
6575.9338445411358407
 20
327.7199000996312748
 30
0.0
 11
6575.9338445411358407
 21
328.0200201176817814
 31
0.0
  0
ARC
  5
36A23
  8
0
 10
6575.8944445411361812
 20
327.7199000996312748
 30
0.0
 40
0.0394
 50
270.0
 51
0.0000000000065138
  0
LINE
  5
36A24
  8
0
 10
6575.8839658739516381
 20
327.9421867270036728
 30
0.0
 11
6575.8862495786361251
 21
327.6805000996312742
 31
0.0
  0
LINE
  5
36A25
  8
0
 10
6575.8680965096364162
 20
328.4675000996311951
 30
0.0
 11
6575.8680965096364162
 21
329.5706300996312734
 31
0.0
  0
ARC
  5
36A26
  8
0
 10
6575.5530965096359068
 20
328.4675000996311951
 30
0.0
 40
0.315
 50
270.0
 51
0.0
  0
LINE
  5
36A27
  8
0
 10
6576.143657139536117
 20
328.4773050780273138
 30
0.0
 11
6576.143657139536117
 21
329.5706300996312734
 31
0.0
  0
ARC
  5
36A28
  8
0
 10
6575.6230547067871157
 20
327.8472832831632786
 30
0.0
 40
0.1089058992955485
 50
55.2029314732280199
 51
87.5557588258916866
  0
ARC
  5
36A29
  8
0
 10
6575.6575817808306965
 20
327.9052892705660724
 30
0.0
 40
0.0418394626808403
 50
16.302734684251071
 51
48.6848513950405817
  0
ARC
  5
36A2A
  8
0
 10
6575.8112155273729513
 20
327.9301084767066072
 30
0.0
 40
0.1142272747573014
 50
186.5724247779230893
 51
216.7545829914542139
  0
ARC
  5
36A2B
  8
0
 10
6575.7577192648614073
 20
327.8922442656614749
 30
0.0
 40
0.0487370107963057
 50
218.7235635747755964
 51
243.2425999780257087
  0
ARC
  5
36A2C
  8
0
 10
6575.7491137590195649
 20
327.875490069467503
 30
0.0
 40
0.0299028559783241
 50
243.5128912141740898
 51
302.0154188088353067
  0
ARC
  5
36A2D
  8
0
 10
6575.4850108880045809
 20
328.3349907639744742
 30
0.0
 40
0.5598750684477746
 50
300.0021577767835765
 51
315.4451055391198793
  0
ARC
  5
36A2E
  8
0
 10
6575.4727806011260327
 20
328.5083424404106154
 30
0.0
 40
0.6715941093047946
 50
298.8068919757582194
 51
357.3511627507621142
  0
ARC
  5
36A2F
  8
0
 10
6575.8314890003193796
 20
327.8620954133377836
 30
0.0
 40
0.0675889319408613
 50
121.2810904542784982
 51
190.1923948272983012
  0
ARC
  5
36A30
  8
0
 10
6575.9645530470788799
 20
327.9392460586001903
 30
0.0
 40
0.080640808548129
 50
133.4925132940059882
 51
177.9101740642919083
  0
LINE
  5
36A31
  8
0
 10
6575.7893563516363429
 20
328.9030001267282159
 30
0.0
 11
6575.7893563516363429
 21
335.3670500996312853
 31
0.0
  0
LINE
  5
36A32
  8
0
 10
6576.1833563516356662
 20
328.9027993117313144
 30
0.0
 11
6576.1833563516356662
 21
335.367250099631292
 31
0.0
  0
ARC
  5
36A33
  8
0
 10
6575.183057139536686
 20
328.9027993117313144
 30
0.0
 40
1.000299212099834
 50
343.8038977521364927
 51
0.0
  0
ARC
  5
36A34
  8
0
 10
6575.1828563516373833
 20
328.9030001267282159
 30
0.0
 40
0.6065000000000002
 50
270.0
 51
0.0
  0
LINE
  5
36A35
  8
0
 10
6575.9070965096352666
 20
329.6096300996313175
 30
0.0
 11
6576.1046571395372666
 21
329.6096300996313175
 31
0.0
  0
ARC
  5
36A36
  8
0
 10
6576.1046571395372666
 20
329.5706300996312734
 30
0.0
 40
0.039
 50
0.0000000000032569
 51
90.0
  0
ARC
  5
36A37
  8
0
 10
6575.9070965096352666
 20
329.5706300996312734
 30
0.0
 40
0.039
 50
90.0
 51
180.0
  0
LINE
  5
36A38
  8
0
 10
6569.7030421790350374
 20
335.9735500996313249
 30
0.0
 11
6575.1828563516373833
 21
335.9735500996313249
 31
0.0
  0
LINE
  5
36A39
  8
0
 10
6569.7028421790346329
 20
336.3675500996312735
 30
0.0
 11
6575.1830563516368784
 21
336.3675500996312735
 31
0.0
  0
LINE
  5
36A3A
  8
0
 10
6568.702542179035845
 20
334.8665500996312971
 30
0.0
 11
6569.0965421790360779
 21
334.8665500996312971
 31
0.0
  0
LINE
  5
36A3B
  8
0
 10
6568.702542179035845
 20
334.8665500996312971
 30
0.0
 11
6568.702542179035845
 21
335.367250099631292
 31
0.0
  0
LINE
  5
36A3C
  8
0
 10
6569.0965421790360779
 20
334.8665500996312971
 30
0.0
 11
6569.0965421790360779
 21
335.3670500996312853
 31
0.0
  0
ARC
  5
36A3D
  8
0
 10
6569.7030421790350374
 20
335.3670500996312853
 30
0.0
 40
0.6065000000000002
 50
90.0
 51
180.0
  0
ARC
  5
36A3E
  8
0
 10
6575.1828563516373833
 20
335.3670500996312853
 30
0.0
 40
0.6065000000000002
 50
0.0
 51
90.0
  0
ARC
  5
36A3F
  8
0
 10
6575.1830563516368784
 20
335.367250099631292
 30
0.0
 40
1.0002999999999991
 50
0.0
 51
90.0
  0
ARC
  5
36A40
  8
0
 10
6569.7028421790346329
 20
335.367250099631292
 30
0.0
 40
1.0002999999999991
 50
90.0
 51
180.0
  0
LINE
  5
36A41
  8
0
 10
6575.9074965096360756
 20
328.7238072287312889
 30
0.0
 11
6576.104257139537367
 21
328.7238072287312889
 31
0.0
  0
ARC
  5
36A42
  8
0
 10
6575.9074965096360756
 20
328.7632072287312894
 30
0.0
 40
0.0394
 50
179.9999999999967031
 51
270.0
  0
ARC
  5
36A43
  8
0
 10
6576.104257139537367
 20
328.7632072287312894
 30
0.0
 40
0.0394
 50
270.0
 51
0.0000000000065138
  0
ENDSEC
  0
EOF
