  0
SECTION
  2
HEADER
  9
$ACADVER
  1
AC1009
  9
$INSBASE
 10
6643.1164339282795481
 20
183.9308960020163966
 30
0.0
  9
$EXTMIN
 10
6641.6164339282795481
 20
175.2400846004163952
 30
0.0
  9
$EXTMAX
 10
6648.6164339282813671
 20
183.9359142675700127
 30
0.0
  9
$LIMMIN
 10
0.0
 20
0.0
  9
$LIMMAX
 10
11.6929133858000007
 20
8.2677165353999982
  9
$ORTHOMODE
 70
     0
  9
$REGENMODE
 70
     1
  9
$FILLMODE
 70
     1
  9
$QTEXTMODE
 70
     0
  9
$MIRRTEXT
 70
     0
  9
$DRAGMODE
 70
     2
  9
$LTSCALE
 40
0.6431102362
  9
$OSMODE
 70
  4095
  9
$ATTMODE
 70
     1
  9
$TEXTSIZE
 40
0.2
  9
$TRACEWID
 40
0.05
  9
$TEXTSTYLE
  7
STANDARD
  9
$CLAYER
  8
0
  9
$CELTYPE
  6
BYLAYER
  9
$CECOLOR
 62
   256
  9
$DIMSCALE
 40
1.0
  9
$DIMASZ
 40
0.1875
  9
$DIMEXO
 40
0.0625
  9
$DIMDLI
 40
0.4443307087
  9
$DIMRND
 40
0.0
  9
$DIMDLE
 40
0.0
  9
$DIMEXE
 40
0.125
  9
$DIMTP
 40
0.01
  9
$DIMTM
 40
0.01
  9
$DIMTXT
 40
2.0
  9
$DIMCEN
 40
0.1052362205
  9
$DIMTSZ
 40
0.0
  9
$DIMTOL
 70
     1
  9
$DIMLIM
 70
     0
  9
$DIMTIH
 70
     1
  9
$DIMTOH
 70
     1
  9
$DIMSE1
 70
     0
  9
$DIMSE2
 70
     0
  9
$DIMTAD
 70
     0
  9
$DIMZIN
 70
     0
  9
$DIMBLK
  1

  9
$DIMASO
 70
     1
  9
$DIMSHO
 70
     1
  9
$DIMPOST
  1
\X
  9
$DIMAPOST
  1

  9
$DIMALT
 70
     1
  9
$DIMALTD
 70
     2
  9
$DIMALTF
 40
25.3999999999999986
  9
$DIMLFAC
 40
1.0
  9
$DIMTOFL
 70
     0
  9
$DIMTVP
 40
0.0
  9
$DIMTIX
 70
     0
  9
$DIMSOXD
 70
     0
  9
$DIMSAH
 70
     0
  9
$DIMBLK1
  1

  9
$DIMBLK2
  1

  9
$DIMSTYLE
  2
STANDARD
  9
$DIMCLRD
 70
     0
  9
$DIMCLRE
 70
     0
  9
$DIMCLRT
 70
     0
  9
$DIMTFAC
 40
1.0
  9
$DIMGAP
 40
0.09
  9
$LUNITS
 70
     2
  9
$LUPREC
 70
     4
  9
$SKETCHINC
 40
0.1
  9
$FILLETRAD
 40
0.0
  9
$AUNITS
 70
     0
  9
$AUPREC
 70
     0
  9
$MENU
  1
.
  9
$ELEVATION
 40
0.0
  9
$PELEVATION
 40
0.0
  9
$THICKNESS
 40
0.0
  9
$LIMCHECK
 70
     0
  9
$BLIPMODE
 70
     0
  9
$CHAMFERA
 40
0.0
  9
$CHAMFERB
 40
0.0
  9
$SKPOLY
 70
     0
  9
$TDCREATE
 40
2458060.468368056230247
  9
$TDUPDATE
 40
2460297.6470486111938953
  9
$TDINDWG
 40
0.8901922454
  9
$TDUSRTIMER
 40
0.8901922454
  9
$USRTIMER
 70
     1
  9
$ANGBASE
 50
0.0
  9
$ANGDIR
 70
     0
  9
$PDMODE
 70
     0
  9
$PDSIZE
 40
0.3125
  9
$PLINEWID
 40
0.0
  9
$COORDS
 70
     1
  9
$SPLFRAME
 70
     0
  9
$SPLINETYPE
 70
     6
  9
$SPLINESEGS
 70
     8
  9
$ATTDIA
 70
     1
  9
$ATTREQ
 70
     1
  9
$HANDLING
 70
     1
  9
$HANDSEED
  5
2F6A3
  9
$SURFTAB1
 70
     6
  9
$SURFTAB2
 70
     6
  9
$SURFTYPE
 70
     6
  9
$SURFU
 70
     6
  9
$SURFV
 70
     6
  9
$UCSNAME
  2

  9
$UCSORG
 10
0.0
 20
0.0
 30
0.0
  9
$UCSXDIR
 10
1.0
 20
0.0
 30
0.0
  9
$UCSYDIR
 10
0.0
 20
1.0
 30
0.0
  9
$PUCSNAME
  2

  9
$PUCSORG
 10
0.0
 20
0.0
 30
0.0
  9
$PUCSXDIR
 10
1.0
 20
0.0
 30
0.0
  9
$PUCSYDIR
 10
0.0
 20
1.0
 30
0.0
  9
$USERI1
 70
     0
  9
$USERI2
 70
     0
  9
$USERI3
 70
     0
  9
$USERI4
 70
     0
  9
$USERI5
 70
     0
  9
$USERR1
 40
0.0
  9
$USERR2
 40
0.0
  9
$USERR3
 40
0.0
  9
$USERR4
 40
0.0
  9
$USERR5
 40
0.0
  9
$WORLDVIEW
 70
     1
  9
$SHADEDGE
 70
     3
  9
$SHADEDIF
 70
    70
  9
$TILEMODE
 70
     1
  9
$MAXACTVP
 70
    64
  9
$PLIMCHECK
 70
     0
  9
$PEXTMIN
 10
1.0000000000000000E+20
 20
1.0000000000000000E+20
 30
1.0000000000000000E+20
  9
$PEXTMAX
 10
-1.0000000000000000E+20
 20
-1.0000000000000000E+20
 30
-1.0000000000000000E+20
  9
$PLIMMIN
 10
0.0
 20
0.0
  9
$PLIMMAX
 10
12.0
 20
9.0
  9
$UNITMODE
 70
     0
  9
$VISRETAIN
 70
     1
  9
$PLINEGEN
 70
     0
  9
$PSLTSCALE
 70
     1
  0
ENDSEC
  0
SECTION
  2
TABLES
  0
TABLE
  2
VPORT
 70
     1
  0
VPORT
  2
*ACTIVE
 70
     0
 10
0.0
 20
0.0
 11
1.0
 21
1.0
 12
2733.7510774829679576
 22
47.0083943314541486
 13
0.0
 23
0.0
 14
1.0
 24
1.0
 15
0.0
 25
0.0
 16
0.0
 26
0.0
 36
60.4960186965801583
 17
3911.3653564453120453
 27
132.5796051025390057
 37
0.0
 40
8.7742882806918203
 41
2.8524096385542159
 42
50.0
 43
0.0
 44
0.0
 50
0.0
 51
0.0
 71
     0
 72
   100
 73
     1
 74
     1
 75
     0
 76
     0
 77
     0
 78
     0
  0
ENDTAB
  0
TABLE
  2
LTYPE
 70
     2
  0
LTYPE
  2
CONTINUOUS
 70
     0
  3
Solid line
 72
    65
 73
     0
 40
0.0
  0
LTYPE
  2
PHANTOM2
 70
     0
  3
___ _ _ ___ _ _ ___ _ _ ___ _ _
 72
    65
 73
     6
 40
1.25
 49
0.625
 49
-0.125
 49
0.125
 49
-0.125
 49
0.125
 49
-0.125
  0
ENDTAB
  0
TABLE
  2
LAYER
 70
     2
  0
LAYER
  2
0
 70
     0
 62
   255
  6
CONTINUOUS
  0
LAYER
  2
DEFPOINTS
 70
     0
 62
     7
  6
CONTINUOUS
  0
ENDTAB
  0
TABLE
  2
STYLE
 70
     1
  0
STYLE
  2
STANDARD
 70
     0
 40
0.0
 41
0.8
 50
0.0
 71
     0
 42
0.2
  3
txt
  4

  0
ENDTAB
  0
TABLE
  2
VIEW
 70
     0
  0
ENDTAB
  0
TABLE
  2
UCS
 70
     0
  0
ENDTAB
  0
TABLE
  2
APPID
 70
    11
  0
APPID
  2
ACAD
 70
     0
  0
APPID
  2
ACAD_MLEADERVER
 70
     0
  0
APPID
  2
ACAD_EXEMPT_FROM_CAD_STANDARDS
 70
     0
  0
APPID
  2
ACAD_NAV_VCDISPLAY
 70
     0
  0
APPID
  2
ACAECLAYERSTANDARD
 70
     0
  0
APPID
  2
ACCMTRANSPARENCY
 70
     0
  0
APPID
  2
ACAD_DSTYLE_DIMJAG
 70
     0
  0
APPID
  2
ACAD_DSTYLE_DIMTALN
 70
     0
  0
APPID
  2
ACDBATTR
 70
     0
  0
APPID
  2
ACADANNOTATIVE
 70
     0
  0
APPID
  2
DCO15
 70
     0
  0
ENDTAB
  0
TABLE
  2
DIMSTYLE
 70
     1
  0
DIMSTYLE
  2
STANDARD
 70
     0
  3

  4

  5

  6

  7

 40
1.0
 41
0.1875
 42
0.0625
 43
0.38
 44
0.125
 45
0.0
 46
0.0
 47
0.01
 48
0.01
140
0.15625
141
0.09
142
0.0
143
25.3999999999999986
144
1.0
145
0.0
146
1.0
147
0.09
 71
     1
 72
     0
 73
     1
 74
     1
 75
     0
 76
     0
 77
     0
 78
     4
170
     0
171
     2
172
     0
173
     0
174
     0
175
     0
176
     0
177
     0
178
     0
  0
ENDTAB
  0
ENDSEC
  0
SECTION
  2
BLOCKS
  0
BLOCK
  8
0
  2
$MODEL_SPACE
 70
     0
 10
0.0
 20
0.0
 30
0.0
  3
$MODEL_SPACE
  1

  0
ENDBLK
  5
21
  8
0
  0
BLOCK
 67
     1
  8
0
  2
$PAPER_SPACE
 70
     0
 10
0.0
 20
0.0
 30
0.0
  3
$PAPER_SPACE
  1

  0
ENDBLK
  5
1D
 67
     1
  8
0
  0
BLOCK
  8
0
  2
_FILLED
 70
     0
 10
0.0
 20
0.0
 30
0.0
  3
_FILLED
  1

  0
SOLID
  5
257AF
  8
0
  6
BYBLOCK
 62
     0
 10
0.0
 20
0.0
 30
0.0
 11
-1.0
 21
0.1666666667
 31
0.0
 12
-1.0
 22
-0.1666666667
 32
0.0
 13
-1.0
 23
-0.1666666667
 33
0.0
  0
ENDBLK
  5
257B0
  8
0
  6
BYBLOCK
 62
     0
  0
ENDSEC
  0
SECTION
  2
ENTITIES
  0
ATTDEF
  5
256E4
  8
DEFPOINTS
 10
6643.1058724602780785
 20
183.9349142675698943
 30
0.0
 40
0.001
  1
P34235-00
  3

  2
MODELNUMBER
 70
     0
1001
ACDBATTR
1070
     0
1070
     1
  0
ATTDEF
  5
256E5
  8
DEFPOINTS
 10
6643.1057466506199489
 20
183.9332474271907927
 30
0.0
 40
0.001
  1
GUISE
  3

  2
TRADENAME
 70
     0
1001
ACDBATTR
1070
     0
1070
     1
  0
ATTDEF
  5
256E6
  8
DEFPOINTS
 10
6643.1058724602780785
 20
183.9315809342365924
 30
0.0
 40
0.001
  1
BATHROOM SINK FAUCET
  3

  2
PRODUCT
 70
     0
1001
ACDBATTR
1070
     0
1070
     1
  0
LINE
  5
2F50E
  8
0
 10
6641.6164339282795481
 20
183.6833054508163912
 30
0.0
 11
6641.6164339282795481
 21
183.9308960020163966
 31
0.0
  0
LINE
  5
2F50F
  8
0
 10
6648.6164339282786386
 20
183.6833054508163912
 30
0.0
 11
6648.6164339282786386
 21
183.9308960020163966
 31
0.0
  0
LINE
  5
2F510
  8
0
 10
6642.4669339282800138
 20
175.2790846004164109
 30
0.0
 11
6642.4669339282800138
 21
183.2803054508163996
 31
0.0
  0
LINE
  5
2F511
  8
0
 10
6646.6162837069350644
 20
181.702911922834204
 30
0.0
 11
6646.6162837069350644
 21
181.7376440303164031
 31
0.0
  0
LINE
  5
2F512
  8
0
 10
6646.1164339282795481
 20
183.3013054508163862
 30
0.0
 11
6646.1164339282795481
 21
183.6553054508163996
 31
0.0
  0
LINE
  5
2F513
  8
0
 10
6646.2896622747812216
 20
181.8560440303164114
 30
0.0
 11
6646.2896622747812216
 21
182.4238803963663997
 31
0.0
  0
LINE
  5
2F514
  8
0
 10
6646.2896622747812216
 20
182.5696912996164087
 30
0.0
 11
6646.2896622747812216
 21
183.2613054508163941
 31
0.0
  0
LINE
  5
2F515
  8
0
 10
6641.6164339282795481
 20
183.9308960020163966
 30
0.0
 11
6648.6164339282786386
 21
183.9308960020163966
 31
0.0
  0
LINE
  5
2F516
  8
0
 10
6642.5059339282797737
 20
175.2400846004163952
 30
0.0
 11
6643.7269339282811416
 21
175.2400846004163952
 31
0.0
  0
LINE
  5
2F517
  8
0
 10
6641.644433928280705
 20
183.6553054508163996
 30
0.0
 11
6648.5884339282811197
 21
183.6553054508163996
 31
0.0
  0
ARC
  5
2F518
  8
0
 10
6648.5884339282811197
 20
183.6833054508163912
 30
0.0
 40
0.028
 50
270.0
 51
0.0
  0
ARC
  5
2F519
  8
0
 10
6641.644433928280705
 20
183.6833054508163912
 30
0.0
 40
0.028
 50
179.999999999985306
 51
270.0
  0
LINE
  5
2F51A
  8
0
 10
6642.1054287778297294
 20
183.2803054508163996
 30
0.0
 11
6644.1274390787293669
 21
183.2803054508163996
 31
0.0
  0
LINE
  5
2F51B
  8
0
 10
6642.06642877782906
 20
183.6553054508163996
 30
0.0
 11
6642.06642877782906
 21
183.3193054508163868
 31
0.0
  0
ARC
  5
2F51C
  8
0
 10
6642.1054287778297294
 20
183.3193054508163868
 30
0.0
 40
0.039
 50
180.0
 51
270.0
  0
ARC
  5
2F51D
  8
0
 10
6642.5059339282797737
 20
175.2790846004164109
 30
0.0
 40
0.039
 50
180.0
 51
270.0
  0
LINE
  5
2F51E
  8
0
 10
6643.765933928279992
 20
175.2790846004164109
 30
0.0
 11
6643.765933928279992
 21
183.2803054508163996
 31
0.0
  0
ARC
  5
2F51F
  8
0
 10
6643.7269339282811416
 20
175.2790846004164109
 30
0.0
 40
0.039
 50
270.0
 51
0.0
  0
LINE
  5
2F520
  8
0
 10
6644.1664390787300363
 20
183.6553054508163996
 30
0.0
 11
6644.1664390787300363
 21
183.3193054508163868
 31
0.0
  0
ARC
  5
2F521
  8
0
 10
6644.1274390787293669
 20
183.3193054508163868
 30
0.0
 40
0.039
 50
270.0
 51
0.0
  0
LINE
  5
2F522
  8
0
 10
6646.1564339282804212
 20
183.2613054508163941
 30
0.0
 11
6648.0764339282795845
 21
183.2613054508163941
 31
0.0
  0
ARC
  5
2F523
  8
0
 10
6646.1564339282804212
 20
183.3013054508163862
 30
0.0
 40
0.04
 50
180.0000000000048885
 51
270.0
  0
LINE
  5
2F524
  8
0
 10
6647.9182055817800574
 20
182.5446912996164031
 30
0.0
 11
6646.3146622747799483
 21
182.5446912996164031
 31
0.0
  0
LINE
  5
2F525
  8
0
 10
6646.4587123865248941
 20
182.3316791516161004
 30
0.0
 11
6647.7741554700332927
 21
182.3316791516166973
 31
0.0
  0
LINE
  5
2F526
  8
0
 10
6646.4437129576799634
 20
182.3465482535756905
 30
0.0
 11
6646.4423246275018755
 21
182.5056351251357114
 31
0.0
  0
ARC
  5
2F527
  8
0
 10
6646.4587123865248941
 20
182.3466791516160868
 30
0.0
 40
0.015
 50
180.5000000300456975
 51
270.0000000000521254
  0
ARC
  5
2F528
  8
0
 10
6646.402926127732826
 20
182.5052912996164025
 30
0.0
 40
0.0394
 50
0.500000030032725
 51
90.0
  0
LINE
  5
2F529
  8
0
 10
6646.442854826020266
 20
182.4448803963663863
 30
0.0
 11
6646.3106622747800429
 21
182.4448803963663863
 31
0.0
  0
ARC
  5
2F52A
  8
0
 10
6646.3146622747799483
 20
182.5696912996164087
 30
0.0
 40
0.025
 50
179.9999999999951115
 51
270.0
  0
ARC
  5
2F52B
  8
0
 10
6647.5381168801841341
 20
216.8793174918363889
 30
0.0
 40
35.2128362292364514
 50
268.5395430340574876
 51
269.3138516084057983
  0
ARC
  5
2F52C
  8
0
 10
6646.6412837069337911
 20
181.702911922834204
 30
0.0
 40
0.025
 50
179.9999999999951115
 51
268.5395430340574876
  0
LINE
  5
2F52D
  8
0
 10
6647.9038055817800341
 20
181.8166440303164109
 30
0.0
 11
6646.3290622747799716
 21
181.8166440303164109
 31
0.0
  0
ARC
  5
2F52E
  8
0
 10
6646.5372837069326124
 20
181.7376440303164031
 30
0.0
 40
0.079
 50
0.0000000000016284
 51
90.0
  0
ARC
  5
2F52F
  8
0
 10
6646.3290622747799716
 20
181.8560440303164114
 30
0.0
 40
0.0394
 50
179.9999999999967031
 51
270.0
  0
ARC
  5
2F530
  8
0
 10
6646.3106622747800429
 20
182.4238803963663997
 30
0.0
 40
0.021
 50
90.0
 51
180.0
  0
ARC
  5
2F531
  8
0
 10
6646.4406486855959884
 20
182.4268247749851923
 30
0.0
 40
0.1131128215330181
 50
176.0155670812499977
 51
200.7262018573196087
  0
ARC
  5
2F532
  8
0
 10
6646.4961392110908491
 20
182.4481031546559961
 30
0.0
 40
0.172542801331815
 50
200.8135523594629888
 51
225.3434066193489969
  0
ARC
  5
2F533
  8
0
 10
6646.7197668239687118
 20
182.7008258144381045
 30
0.0
 40
0.5098282974190664
 50
227.429026519238306
 51
250.5696161242524909
  0
ARC
  5
2F534
  8
0
 10
6647.0279617829801282
 20
183.514480741558998
 30
0.0
 40
1.379811689427445
 50
249.7403187470798969
 51
263.7208283520741929
  0
ARC
  5
2F535
  8
0
 10
6647.1938436531663683
 20
185.4485455745335969
 30
0.0
 40
3.3207442922270691
 50
264.5257097363797243
 51
268.6642595985633193
  0
ARC
  5
2F536
  8
0
 10
6646.3101995736451499
 20
182.4245858252222092
 30
0.0
 40
0.0202998450798482
 50
29.8330161381902883
 51
88.6939250927944585
  0
LINE
  5
2F537
  8
0
 10
6646.3724130006694395
 20
182.3586692017163955
 30
0.0
 11
6646.4436071797617842
 21
182.3586692017163955
 31
0.0
  0
LINE
  5
2F538
  8
0
 10
6646.3278092615919377
 20
182.4346844687281077
 30
0.0
 11
6646.3724130006694395
 21
182.3586692017163955
 31
0.0
  0
ARC
  5
2F539
  8
0
 10
6646.4435800260407632
 20
182.3475883708723018
 30
0.0
 40
0.0720245118867241
 50
171.150006839789711
 51
198.1915805336668086
  0
LINE
  5
2F53A
  8
0
 10
6646.8658273505798206
 20
182.3316791516162141
 30
0.0
 11
6646.8593088937059292
 21
182.1450149693617107
 31
0.0
  0
LINE
  5
2F53B
  8
0
 10
6646.9299339282797519
 20
182.3316791516162994
 30
0.0
 11
6646.9299339282797519
 21
182.1383047507461015
 31
0.0
  0
LINE
  5
2F53C
  8
0
 10
6647.6165841496249413
 20
181.702911922834204
 30
0.0
 11
6647.6165841496249413
 21
181.7376440303164031
 31
0.0
  0
LINE
  5
2F53D
  8
0
 10
6648.1164339282786386
 20
183.3013054508163862
 30
0.0
 11
6648.1164339282786386
 21
183.6553054508163996
 31
0.0
  0
LINE
  5
2F53E
  8
0
 10
6647.9432055817787841
 20
181.8560440303164114
 30
0.0
 11
6647.9432055817787841
 21
182.4238803963663997
 31
0.0
  0
LINE
  5
2F53F
  8
0
 10
6647.9432055817787841
 20
182.5696912996164087
 30
0.0
 11
6647.9432055817787841
 21
183.2613054508163941
 31
0.0
  0
ARC
  5
2F540
  8
0
 10
6648.0764339282795845
 20
183.3013054508163862
 30
0.0
 40
0.04
 50
270.0
 51
359.9999999999951115
  0
LINE
  5
2F541
  8
0
 10
6647.7891548988800423
 20
182.3465482535756905
 30
0.0
 11
6647.7905432290581302
 21
182.5056351251357114
 31
0.0
  0
ARC
  5
2F542
  8
0
 10
6647.7741554700332927
 20
182.3466791516160868
 30
0.0
 40
0.015
 50
269.9999999999478746
 51
359.4999999699542741
  0
ARC
  5
2F543
  8
0
 10
6647.8299417288271798
 20
182.5052912996164025
 30
0.0
 40
0.0394
 50
90.0
 51
179.499999969967206
  0
LINE
  5
2F544
  8
0
 10
6647.7900130305406492
 20
182.4448803963663863
 30
0.0
 11
6647.9222055817799628
 21
182.4448803963663863
 31
0.0
  0
ARC
  5
2F545
  8
0
 10
6647.9182055817800574
 20
182.5696912996164087
 30
0.0
 40
0.025
 50
270.0
 51
0.0000000000032569
  0
ARC
  5
2F546
  8
0
 10
6646.6947509763758717
 20
216.8793174918363889
 30
0.0
 40
35.2128362292364514
 50
270.6861483915942017
 51
271.4604569659423987
  0
ARC
  5
2F547
  8
0
 10
6647.5915841496262146
 20
181.702911922834204
 30
0.0
 40
0.025
 50
271.4604569659423987
 51
0.0000000000032569
  0
ARC
  5
2F548
  8
0
 10
6647.6955841496273933
 20
181.7376440303164031
 30
0.0
 40
0.079
 50
90.0
 51
179.9999999999984084
  0
ARC
  5
2F549
  8
0
 10
6647.9038055817800341
 20
181.8560440303164114
 30
0.0
 40
0.0394
 50
270.0
 51
0.0000000000032569
  0
ARC
  5
2F54A
  8
0
 10
6647.9222055817799628
 20
182.4238803963663997
 30
0.0
 40
0.021
 50
0.0
 51
90.0
  0
ARC
  5
2F54B
  8
0
 10
6647.7922191709631079
 20
182.4268247749851923
 30
0.0
 40
0.1131128215330181
 50
339.2737981426803913
 51
3.984432918749961
  0
ARC
  5
2F54C
  8
0
 10
6647.7367286454691566
 20
182.4481031546559961
 30
0.0
 40
0.172542801331815
 50
314.6565933806509747
 51
339.1864476405369828
  0
ARC
  5
2F54D
  8
0
 10
6647.5131010325912939
 20
182.7008258144381045
 30
0.0
 40
0.5098282974190664
 50
289.4303838757476228
 51
312.5709734807617224
  0
ARC
  5
2F54E
  8
0
 10
6647.2049060735798776
 20
183.514480741558998
 30
0.0
 40
1.379811689427445
 50
276.2791716479258071
 51
290.2596812529200747
  0
ARC
  5
2F54F
  8
0
 10
6647.0390242033936374
 20
185.4485455745335969
 30
0.0
 40
3.3207442922270691
 50
271.3357404014366807
 51
275.4742902636202757
  0
ARC
  5
2F550
  8
0
 10
6647.9226682829148558
 20
182.4245858252222092
 30
0.0
 40
0.0202998450798482
 50
91.3060749072055557
 51
150.1669838618097117
  0
LINE
  5
2F551
  8
0
 10
6647.8604548558905663
 20
182.3586692017163955
 30
0.0
 11
6647.7892606767982215
 21
182.3586692017163955
 31
0.0
  0
LINE
  5
2F552
  8
0
 10
6647.9050585949680681
 20
182.4346844687281077
 30
0.0
 11
6647.8604548558905663
 21
182.3586692017163955
 31
0.0
  0
ARC
  5
2F553
  8
0
 10
6647.7892878305183331
 20
182.3475883708723018
 30
0.0
 40
0.0720245118867241
 50
341.8084194663331914
 51
8.8499931602103015
  0
LINE
  5
2F554
  8
0
 10
6647.3670405059801851
 20
182.3316791516162141
 30
0.0
 11
6647.3735589628540765
 21
182.1450149693617107
 31
0.0
  0
LINE
  5
2F555
  8
0
 10
6647.3029339282802539
 20
182.3316791516162994
 30
0.0
 11
6647.3029339282802539
 21
182.1383047507461015
 31
0.0
  0
CIRCLE
  5
2F556
  8
0
 10
6647.1164339282786386
 20
182.243888124816408
 30
0.0
 40
0.0826771653999998
  0
ENDSEC
  0
EOF
