  0
SECTION
  2
HEADER
  9
$ACADVER
  1
AC1009
  9
$INSBASE
 10
6555.5982927789536916
 20
304.8151973671185146
 30
0.0
  9
$EXTMIN
 10
6546.4237024888434462
 20
302.628654946762083
 30
-0.0015258207003583
  9
$EXTMAX
 10
6555.8999892999272561
 20
306.3338462446268977
 30
0.0000000349246037
  9
$LIMMIN
 10
0.0
 20
0.0
  9
$LIMMAX
 10
11.6929133858000007
 20
8.2677165353999982
  9
$ORTHOMODE
 70
     0
  9
$REGENMODE
 70
     1
  9
$FILLMODE
 70
     1
  9
$QTEXTMODE
 70
     0
  9
$MIRRTEXT
 70
     0
  9
$DRAGMODE
 70
     2
  9
$LTSCALE
 40
0.6431102362
  9
$OSMODE
 70
  4095
  9
$ATTMODE
 70
     1
  9
$TEXTSIZE
 40
0.2
  9
$TRACEWID
 40
0.05
  9
$TEXTSTYLE
  7
STANDARD
  9
$CLAYER
  8
0
  9
$CELTYPE
  6
BYLAYER
  9
$CECOLOR
 62
   256
  9
$DIMSCALE
 40
1.0
  9
$DIMASZ
 40
0.1875
  9
$DIMEXO
 40
0.0625
  9
$DIMDLI
 40
0.4443307087
  9
$DIMRND
 40
0.0
  9
$DIMDLE
 40
0.0
  9
$DIMEXE
 40
0.125
  9
$DIMTP
 40
0.01
  9
$DIMTM
 40
0.01
  9
$DIMTXT
 40
2.0
  9
$DIMCEN
 40
0.1052362205
  9
$DIMTSZ
 40
0.0
  9
$DIMTOL
 70
     1
  9
$DIMLIM
 70
     0
  9
$DIMTIH
 70
     1
  9
$DIMTOH
 70
     1
  9
$DIMSE1
 70
     0
  9
$DIMSE2
 70
     0
  9
$DIMTAD
 70
     0
  9
$DIMZIN
 70
     0
  9
$DIMBLK
  1

  9
$DIMASO
 70
     1
  9
$DIMSHO
 70
     1
  9
$DIMPOST
  1
\X
  9
$DIMAPOST
  1

  9
$DIMALT
 70
     1
  9
$DIMALTD
 70
     2
  9
$DIMALTF
 40
25.3999999999999986
  9
$DIMLFAC
 40
1.0
  9
$DIMTOFL
 70
     0
  9
$DIMTVP
 40
0.0
  9
$DIMTIX
 70
     0
  9
$DIMSOXD
 70
     0
  9
$DIMSAH
 70
     0
  9
$DIMBLK1
  1

  9
$DIMBLK2
  1

  9
$DIMSTYLE
  2
STANDARD
  9
$DIMCLRD
 70
     0
  9
$DIMCLRE
 70
     0
  9
$DIMCLRT
 70
     0
  9
$DIMTFAC
 40
1.0
  9
$DIMGAP
 40
0.09
  9
$LUNITS
 70
     2
  9
$LUPREC
 70
     4
  9
$SKETCHINC
 40
0.1
  9
$FILLETRAD
 40
0.0
  9
$AUNITS
 70
     0
  9
$AUPREC
 70
     0
  9
$MENU
  1
.
  9
$ELEVATION
 40
0.0
  9
$PELEVATION
 40
0.0
  9
$THICKNESS
 40
0.0
  9
$LIMCHECK
 70
     0
  9
$BLIPMODE
 70
     0
  9
$CHAMFERA
 40
0.0
  9
$CHAMFERB
 40
0.0
  9
$SKPOLY
 70
     0
  9
$TDCREATE
 40
2458060.468368056230247
  9
$TDUPDATE
 40
2460297.6472106478177011
  9
$TDINDWG
 40
0.8971135417
  9
$TDUSRTIMER
 40
0.8971135417
  9
$USRTIMER
 70
     1
  9
$ANGBASE
 50
0.0
  9
$ANGDIR
 70
     0
  9
$PDMODE
 70
     0
  9
$PDSIZE
 40
0.3125
  9
$PLINEWID
 40
0.0
  9
$COORDS
 70
     1
  9
$SPLFRAME
 70
     0
  9
$SPLINETYPE
 70
     6
  9
$SPLINESEGS
 70
     8
  9
$ATTDIA
 70
     1
  9
$ATTREQ
 70
     1
  9
$HANDLING
 70
     1
  9
$HANDSEED
  5
309D1
  9
$SURFTAB1
 70
     6
  9
$SURFTAB2
 70
     6
  9
$SURFTYPE
 70
     6
  9
$SURFU
 70
     6
  9
$SURFV
 70
     6
  9
$UCSNAME
  2

  9
$UCSORG
 10
0.0
 20
0.0
 30
0.0
  9
$UCSXDIR
 10
1.0
 20
0.0
 30
0.0
  9
$UCSYDIR
 10
0.0
 20
1.0
 30
0.0
  9
$PUCSNAME
  2

  9
$PUCSORG
 10
0.0
 20
0.0
 30
0.0
  9
$PUCSXDIR
 10
1.0
 20
0.0
 30
0.0
  9
$PUCSYDIR
 10
0.0
 20
1.0
 30
0.0
  9
$USERI1
 70
     0
  9
$USERI2
 70
     0
  9
$USERI3
 70
     0
  9
$USERI4
 70
     0
  9
$USERI5
 70
     0
  9
$USERR1
 40
0.0
  9
$USERR2
 40
0.0
  9
$USERR3
 40
0.0
  9
$USERR4
 40
0.0
  9
$USERR5
 40
0.0
  9
$WORLDVIEW
 70
     1
  9
$SHADEDGE
 70
     3
  9
$SHADEDIF
 70
    70
  9
$TILEMODE
 70
     1
  9
$MAXACTVP
 70
    64
  9
$PLIMCHECK
 70
     0
  9
$PEXTMIN
 10
1.0000000000000000E+20
 20
1.0000000000000000E+20
 30
1.0000000000000000E+20
  9
$PEXTMAX
 10
-1.0000000000000000E+20
 20
-1.0000000000000000E+20
 30
-1.0000000000000000E+20
  9
$PLIMMIN
 10
0.0
 20
0.0
  9
$PLIMMAX
 10
12.0
 20
9.0
  9
$UNITMODE
 70
     0
  9
$VISRETAIN
 70
     1
  9
$PLINEGEN
 70
     0
  9
$PSLTSCALE
 70
     1
  0
ENDSEC
  0
SECTION
  2
TABLES
  0
TABLE
  2
VPORT
 70
     1
  0
VPORT
  2
*ACTIVE
 70
     0
 10
0.0
 20
0.0
 11
1.0
 21
1.0
 12
2639.7964894490719416
 22
171.9016454931553994
 13
0.0
 23
0.0
 14
1.0
 24
1.0
 15
0.0
 25
0.0
 16
0.0
 26
0.0
 36
60.4960186965801583
 17
3911.3653564453120453
 27
132.5796051025390057
 37
0.0
 40
3.7386215952890889
 41
2.8524096385542159
 42
50.0
 43
0.0
 44
0.0
 50
0.0
 51
0.0
 71
     0
 72
   100
 73
     1
 74
     1
 75
     0
 76
     0
 77
     0
 78
     0
  0
ENDTAB
  0
TABLE
  2
LTYPE
 70
     2
  0
LTYPE
  2
CONTINUOUS
 70
     0
  3
Solid line
 72
    65
 73
     0
 40
0.0
  0
LTYPE
  2
PHANTOM2
 70
     0
  3
___ _ _ ___ _ _ ___ _ _ ___ _ _
 72
    65
 73
     6
 40
1.25
 49
0.625
 49
-0.125
 49
0.125
 49
-0.125
 49
0.125
 49
-0.125
  0
ENDTAB
  0
TABLE
  2
LAYER
 70
     2
  0
LAYER
  2
0
 70
     0
 62
   255
  6
CONTINUOUS
  0
LAYER
  2
DEFPOINTS
 70
     0
 62
     7
  6
CONTINUOUS
  0
ENDTAB
  0
TABLE
  2
STYLE
 70
     1
  0
STYLE
  2
STANDARD
 70
     0
 40
0.0
 41
0.8
 50
0.0
 71
     0
 42
0.2
  3
txt
  4

  0
ENDTAB
  0
TABLE
  2
VIEW
 70
     0
  0
ENDTAB
  0
TABLE
  2
UCS
 70
     0
  0
ENDTAB
  0
TABLE
  2
APPID
 70
    11
  0
APPID
  2
ACAD
 70
     0
  0
APPID
  2
ACAD_MLEADERVER
 70
     0
  0
APPID
  2
ACAD_EXEMPT_FROM_CAD_STANDARDS
 70
     0
  0
APPID
  2
ACAD_NAV_VCDISPLAY
 70
     0
  0
APPID
  2
ACAECLAYERSTANDARD
 70
     0
  0
APPID
  2
ACCMTRANSPARENCY
 70
     0
  0
APPID
  2
ACAD_DSTYLE_DIMJAG
 70
     0
  0
APPID
  2
ACAD_DSTYLE_DIMTALN
 70
     0
  0
APPID
  2
ACDBATTR
 70
     0
  0
APPID
  2
ACADANNOTATIVE
 70
     0
  0
APPID
  2
DCO15
 70
     0
  0
ENDTAB
  0
TABLE
  2
DIMSTYLE
 70
     1
  0
DIMSTYLE
  2
STANDARD
 70
     0
  3

  4

  5

  6

  7

 40
1.0
 41
0.1875
 42
0.0625
 43
0.38
 44
0.125
 45
0.0
 46
0.0
 47
0.01
 48
0.01
140
0.15625
141
0.09
142
0.0
143
25.3999999999999986
144
1.0
145
0.0
146
1.0
147
0.09
 71
     1
 72
     0
 73
     1
 74
     1
 75
     0
 76
     0
 77
     0
 78
     4
170
     0
171
     2
172
     0
173
     0
174
     0
175
     0
176
     0
177
     0
178
     0
  0
ENDTAB
  0
ENDSEC
  0
SECTION
  2
BLOCKS
  0
BLOCK
  8
0
  2
$MODEL_SPACE
 70
     0
 10
0.0
 20
0.0
 30
0.0
  3
$MODEL_SPACE
  1

  0
ENDBLK
  5
21
  8
0
  0
BLOCK
 67
     1
  8
0
  2
$PAPER_SPACE
 70
     0
 10
0.0
 20
0.0
 30
0.0
  3
$PAPER_SPACE
  1

  0
ENDBLK
  5
1D
 67
     1
  8
0
  0
BLOCK
  8
0
  2
_FILLED
 70
     0
 10
0.0
 20
0.0
 30
0.0
  3
_FILLED
  1

  0
SOLID
  5
26C2A
  8
0
  6
BYBLOCK
 62
     0
 10
0.0
 20
0.0
 30
0.0
 11
-1.0
 21
0.1666666667
 31
0.0
 12
-1.0
 22
-0.1666666667
 32
0.0
 13
-1.0
 23
-0.1666666667
 33
0.0
  0
ENDBLK
  5
26C2B
  8
0
  6
BYBLOCK
 62
     0
  0
ENDSEC
  0
SECTION
  2
ENTITIES
  0
ATTDEF
  5
26A5B
  8
DEFPOINTS
 10
6555.5993030734580316
 20
304.8191355987480051
 30
0.0
 40
0.001
  1
P34235-00
  3

  2
MODELNUMBER
 70
     0
1001
ACDBATTR
1070
     0
1070
     1
  0
ATTDEF
  5
26A5C
  8
DEFPOINTS
 10
6555.599177263801721
 20
304.8174687583688751
 30
0.0
 40
0.001
  1
GUISE
  3

  2
TRADENAME
 70
     0
1001
ACDBATTR
1070
     0
1070
     1
  0
ATTDEF
  5
26A5D
  8
DEFPOINTS
 10
6555.5993030734580316
 20
304.8158022654146748
 30
0.0
 40
0.001
  1
BATHROOM SINK FAUCET
  3

  2
PRODUCT
 70
     0
1001
ACDBATTR
1070
     0
1070
     1
  0
LINE
  5
307F2
  8
0
 10
6555.5982927789536916
 20
306.3152025175685935
 30
0.0
 11
6555.5982927789536916
 21
303.3151922166684926
 31
0.0
  0
LINE
  5
307F3
  8
0
 10
6555.3227022277542346
 20
306.2872025175685167
 30
0.0
 11
6555.3227022277551441
 21
303.3431922166685126
 31
0.0
  0
LINE
  5
307F4
  8
0
 10
6555.3507022277535725
 20
306.3152025175685935
 30
0.0
 11
6555.5982927789536916
 21
306.3152025175685935
 31
0.0
  0
ARC
  5
307F5
  8
0
 10
6555.3507022277535725
 20
306.2872025175685167
 30
0.0
 40
0.028
 50
90.0
 51
180.0000000000129887
  0
LINE
  5
307F6
  8
0
 10
6554.986702227754904
 20
305.8652025175684912
 30
0.0
 11
6555.3227022277542346
 21
305.8652025175684912
 31
0.0
  0
LINE
  5
307F7
  8
0
 10
6554.9477022277542346
 20
305.8262025175685039
 30
0.0
 11
6554.9477022277542346
 21
305.8092466066295856
 31
0.0
  0
ARC
  5
307F8
  8
0
 10
6554.986702227754904
 20
305.8262025175685039
 30
0.0
 40
0.039
 50
90.0
 51
180.0
  0
LINE
  5
307F9
  8
0
 10
6554.9687022277548749
 20
305.8152025175684798
 30
0.0
 11
6555.3227022277542346
 21
305.8152025175684798
 31
0.0
  0
LINE
  5
307FA
  8
0
 10
6554.9287022277549113
 20
305.7752025175685162
 30
0.0
 11
6554.9287022277549113
 21
303.8551922166685131
 31
0.0
  0
ARC
  5
307FB
  8
0
 10
6554.9687022277548749
 20
305.7752025175685162
 30
0.0
 40
0.04
 50
90.0
 51
179.9999999999967031
  0
LINE
  5
307FC
  8
0
 10
6554.9287022277549113
 20
305.6419741710685116
 30
0.0
 11
6554.2370880765538459
 21
305.6419741710685116
 31
0.0
  0
LINE
  5
307FD
  8
0
 10
6554.2120880765533002
 20
305.6169741710684775
 30
0.0
 11
6554.2120880765533002
 21
304.0134205631686086
 31
0.0
  0
ARC
  5
307FE
  8
0
 10
6554.2370880765538459
 20
305.6169741710684775
 30
0.0
 40
0.025
 50
90.0
 51
179.9999999999901945
  0
LINE
  5
307FF
  8
0
 10
6554.0140759285550303
 20
305.488617782418487
 30
0.0
 11
6554.1726880765545502
 21
305.488617782418487
 31
0.0
  0
LINE
  5
30800
  8
0
 10
6553.9990759285547028
 20
305.4736177824185006
 30
0.0
 11
6553.9990759285547028
 21
305.1058596335187758
 31
0.0
  0
ARC
  5
30801
  8
0
 10
6554.0140759285550303
 20
305.4736177824185006
 30
0.0
 40
0.015
 50
90.0
 51
180.0
  0
ARC
  5
30802
  8
0
 10
6554.1726880765545502
 20
305.5280177824184875
 30
0.0
 40
0.0394
 50
270.0
 51
0.0000000000097707
  0
LINE
  5
30803
  8
0
 10
6547.9074813773540882
 20
306.1147529112685106
 30
0.0
 11
6554.1051917710537964
 21
306.1147529112685106
 31
0.0
  0
LINE
  5
30804
  8
0
 10
6547.9074821647536737
 20
305.7210521238685033
 30
0.0
 11
6554.1051917710537964
 21
305.7210521238685033
 31
0.0
  0
LINE
  5
30805
  8
0
 10
6546.9074813773540882
 20
304.6147530175684892
 30
0.0
 11
6547.3011821647551187
 21
304.6147530175684892
 31
0.0
  0
LINE
  5
30806
  8
0
 10
6546.9074813773540882
 20
305.1147529112685106
 30
0.0
 11
6546.9074813773540882
 21
304.6147530175684892
 31
0.0
  0
LINE
  5
30807
  8
0
 10
6547.3011821647551187
 20
305.1147521238685272
 30
0.0
 11
6547.3011821647551187
 21
304.6147530175684892
 31
0.0
  0
ARC
  5
30808
  8
0
 10
6547.9074813773540882
 20
305.1147529112685106
 30
0.0
 40
1.0
 50
90.0
 51
180.0
  0
ARC
  5
30809
  8
0
 10
6547.9074821647536737
 20
305.1147521238685272
 30
0.0
 40
0.6063
 50
90.0
 51
180.0
  0
ARC
  5
3080A
  8
0
 10
6554.1051917710537964
 20
305.1147625175685221
 30
0.0
 40
0.9999903936999897
 50
34.5614372407215882
 51
90.0
  0
ARC
  5
3080B
  8
0
 10
6554.1051917710537964
 20
305.1147625175685221
 30
0.0
 40
0.6062896063000115
 50
60.4087857729784901
 51
90.0
  0
LINE
  5
3080C
  8
0
 10
6555.3507022277535725
 20
303.3151922166684926
 30
0.0
 11
6555.5982927789536916
 21
303.3151922166684926
 31
0.0
  0
ARC
  5
3080D
  8
0
 10
6555.3507022277535725
 20
303.3431922166685126
 30
0.0
 40
0.028
 50
179.9999999999870113
 51
270.0
  0
LINE
  5
3080E
  8
0
 10
6554.986702227754904
 20
303.7651922166685949
 30
0.0
 11
6555.1318852530057484
 21
303.7651922166685949
 31
0.0
  0
LINE
  5
3080F
  8
0
 10
6555.2758903709072911
 20
303.7651922166685949
 30
0.0
 11
6555.3227022277542346
 21
303.7651922166685949
 31
0.0
  0
LINE
  5
30810
  8
0
 10
6554.9477022277542346
 20
303.8041922166685254
 30
0.0
 11
6554.9477022277542346
 21
303.8211481276073869
 31
0.0
  0
ARC
  5
30811
  8
0
 10
6554.986702227754904
 20
303.8041922166685254
 30
0.0
 40
0.039
 50
180.0
 51
270.0
  0
LINE
  5
30812
  8
0
 10
6554.9687022277548749
 20
303.8151922166684926
 30
0.0
 11
6555.3227022277542346
 21
303.8151922166684926
 31
0.0
  0
ARC
  5
30813
  8
0
 10
6554.9687022277548749
 20
303.8551922166685131
 30
0.0
 40
0.04
 50
180.0000000000032117
 51
270.0
  0
LINE
  5
30814
  8
0
 10
6554.9287022277549113
 20
303.9884205631685177
 30
0.0
 11
6554.9014675140324471
 21
303.9884205631685177
 31
0.0
  0
LINE
  5
30815
  8
0
 10
6554.6966606865889844
 20
303.9884205631685177
 30
0.0
 11
6554.2370880765538459
 21
303.9884205631685177
 31
0.0
  0
ARC
  5
30816
  8
0
 10
6554.2370880765538459
 20
304.0134205631686086
 30
0.0
 40
0.025
 50
180.0000000000065086
 51
270.0
  0
LINE
  5
30817
  8
0
 10
6554.7044563556237335
 20
303.9894027536046792
 30
0.0
 11
6554.7203400230537227
 21
303.9802323138684983
 31
0.0
  0
LINE
  5
30818
  8
0
 10
6554.7203400230537227
 20
303.9802323138684983
 30
0.0
 11
6554.8778203380552441
 21
303.9802323138684983
 31
0.0
  0
LINE
  5
30819
  8
0
 10
6554.8778203380552441
 20
303.9802323138684983
 30
0.0
 11
6554.8936984352358195
 21
303.989399537578322
 31
0.0
  0
ARC
  5
3081A
  8
0
 10
6554.7990641003107157
 20
303.2070705152750065
 30
0.0
 40
0.7880319514364937
 50
82.5333951232436789
 51
97.4666048767563069
  0
ARC
  5
3081B
  8
0
 10
6555.2038878119556102
 20
302.8631040394726028
 30
0.0
 40
0.9049571525393055
 50
85.4364602996363232
 51
94.5635397003636768
  0
LINE
  5
3081C
  8
0
 10
6555.1219552284546808
 20
303.7600765332684887
 30
0.0
 11
6555.1219552284546808
 21
303.7651922166685949
 31
0.0
  0
LINE
  5
3081D
  8
0
 10
6555.271561527754784
 20
303.7522025175684917
 30
0.0
 11
6555.1298292442543243
 21
303.7522025175684917
 31
0.0
  0
LINE
  5
3081E
  8
0
 10
6555.1298292442543243
 20
303.7522025175684917
 30
0.0
 11
6555.1219552284546808
 21
303.7600765332684887
 31
0.0
  0
LINE
  5
3081F
  8
0
 10
6555.2794355434543832
 20
303.7651922166685949
 30
0.0
 11
6555.2794355434543832
 21
303.7600765332684887
 31
0.0
  0
LINE
  5
30820
  8
0
 10
6555.2794355434543832
 20
303.7600765332684887
 30
0.0
 11
6555.271561527754784
 21
303.7522025175684917
 31
0.0
  0
LINE
  5
30821
  8
0
 10
6555.1219552284546808
 20
303.7600765332684887
 30
0.0
 11
6555.2794355434543832
 21
303.7600765332684887
 31
0.0
  0
LINE
  5
30822
  8
0
 10
6554.1126166700923932
 20
304.0082169492761182
 30
0.0
 11
6554.1126166700923932
 21
304.7788025454217973
 31
0.0
  0
LINE
  5
30823
  8
0
 10
6554.1126166700923932
 20
304.1417769518185992
 30
0.0
 11
6554.1726880765545502
 21
304.1417769518185992
 31
0.0
  0
ARC
  5
30824
  8
0
 10
6554.1726880765545502
 20
304.1023769518185986
 30
0.0
 40
0.0394
 50
359.9999999999902229
 51
90.0
  0
LINE
  5
30825
  8
0
 10
6554.0929644700918288
 20
303.988219973625803
 30
0.0
 11
6554.0197063954574332
 21
303.9869458230302257
 31
0.0
  0
LINE
  5
30826
  8
0
 10
6553.8031916508707582
 20
303.9831800621615798
 30
0.0
 11
6553.7377840628496415
 21
303.9820424521760174
 31
0.0
  0
ARC
  5
30827
  8
0
 10
6554.0926166700910471
 20
304.0082169492761182
 30
0.0
 40
0.02
 50
270.9964238348284766
 51
0.0000000000032569
  0
LINE
  5
30828
  8
0
 10
6553.6218360828543155
 20
302.6748481867684859
 30
0.0
 11
6553.6218360828543155
 21
303.8640602958391241
 31
0.0
  0
LINE
  5
30829
  8
0
 10
6553.3364030120546886
 20
302.6748481867684859
 30
0.0
 11
6553.3364030120546886
 21
305.2902025175685026
 31
0.0
  0
LINE
  5
3082A
  8
0
 10
6553.3614030120543248
 20
302.6498481867685086
 30
0.0
 11
6553.5968360828546793
 21
302.6498481867685086
 31
0.0
  0
ARC
  5
3082B
  8
0
 10
6553.5968360828546793
 20
302.6748481867684859
 30
0.0
 40
0.025
 50
270.0
 51
0.0
  0
ARC
  5
3082C
  8
0
 10
6553.3614030120543248
 20
302.6748481867684859
 30
0.0
 40
0.025
 50
180.0000000000065086
 51
270.0
  0
ARC
  5
3082D
  8
0
 10
6553.7398360828537989
 20
303.8640602958391241
 30
0.0
 40
0.118
 50
90.9964238348285051
 51
180.0000000000032117
  0
LINE
  5
3082E
  8
0
 10
6553.801836082853697
 20
303.9809269269684933
 30
0.0
 11
6553.801836082853697
 21
303.9831564852685233
 31
0.0
  0
LINE
  5
3082F
  8
0
 10
6554.0207337206547891
 20
303.9809269269684933
 30
0.0
 11
6554.0207337206547891
 21
303.9869636909173778
 31
0.0
  0
LINE
  5
30830
  8
0
 10
6554.0087337206541633
 20
303.9689269269684928
 30
0.0
 11
6553.8138360828543227
 21
303.9689269269684928
 31
0.0
  0
ARC
  5
30831
  8
0
 10
6554.0087337206541633
 20
303.9809269269686069
 30
0.0
 40
0.012
 50
270.0
 51
359.9999999999836859
  0
ARC
  5
30832
  8
0
 10
6553.8138360828543227
 20
303.9809269269686069
 30
0.0
 40
0.012
 50
180.0000000000163141
 51
270.0
  0
ARC
  5
30833
  8
0
 10
6553.9255960675063761
 20
303.1716698995602997
 30
0.0
 40
0.8206897009326306
 50
83.415279166057644
 51
98.5775685035907543
  0
LINE
  5
30834
  8
0
 10
6554.1004889756168268
 20
304.8437555210070968
 30
0.0
 11
6553.7946791696513174
 21
305.6341272740679074
 31
0.0
  0
ARC
  5
30835
  8
0
 10
6553.9326166700921021
 20
304.7788025454217973
 30
0.0
 40
0.18
 50
0.0
 51
21.1523982736895384
  0
LINE
  5
30836
  8
0
 10
6553.7756776431324397
 20
305.6469072306837802
 30
0.0
 11
6553.5227531824411926
 21
305.6424924178111837
 31
0.0
  0
ARC
  5
30837
  8
0
 10
6553.776026691259176
 20
305.6269102767806203
 30
0.0
 40
0.02
 50
21.1523982736865115
 51
90.9999999975782714
  0
LINE
  5
30838
  8
0
 10
6553.4840408072541322
 20
305.6030984186219825
 30
0.0
 11
6553.4840408072541322
 21
304.2526585781446897
 31
0.0
  0
ARC
  5
30839
  8
0
 10
6553.5234408072547012
 20
305.6030984186219825
 30
0.0
 40
0.0394
 50
90.9999999975782714
 51
179.9999999999967031
  0
LINE
  5
3083A
  8
0
 10
6553.3614030120543248
 20
305.3152025175684798
 30
0.0
 11
6553.4050408072553182
 21
305.3152025175684798
 31
0.0
  0
ARC
  5
3083B
  8
0
 10
6553.3614030120543248
 20
305.2902025175685026
 30
0.0
 40
0.025
 50
90.0
 51
179.9999999999901945
  0
ARC
  5
3083C
  8
0
 10
6553.4050408072553182
 20
305.3942025175686013
 30
0.0
 40
0.079
 50
270.0
 51
359.9999999999968168
  0
LINE
  5
3083D
  8
0
 10
6553.7379163561035966
 20
304.1009870236616166
 30
0.0
 11
6553.7379163561035966
 21
303.9820447531035938
 31
0.0
  0
LINE
  5
3083E
  8
0
 10
6553.5220600951288361
 20
304.1797417326260984
 30
0.0
 11
6553.6047635619197536
 21
304.1811853269376229
 31
0.0
  0
ARC
  5
3083F
  8
0
 10
6553.6008404348785916
 20
304.0074603737202779
 30
0.0
 40
0.1737692443906884
 50
51.3485451610880475
 51
88.7063434486350246
  0
ARC
  5
30840
  8
0
 10
6553.6549789653208791
 20
304.0756115082447764
 30
0.0
 40
0.0867325058592347
 50
17.0120096026040386
 51
51.1596804104626912
  0
ARC
  5
30841
  8
0
 10
6553.6235676307705944
 20
304.2617295471549141
 30
0.0
 40
0.139821375187971
 50
183.7196995490209872
 51
206.9190611623733105
  0
ARC
  5
30842
  8
0
 10
6553.538380387088182
 20
304.2191137424638896
 30
0.0
 40
0.0445745442307707
 50
207.6500636457068083
 51
228.7730763172608022
  0
ARC
  5
30843
  8
0
 10
6553.5250344124196999
 20
304.2038832050783981
 30
0.0
 40
0.0243240057454924
 50
228.7730763172608022
 51
262.9763463375617789
  0
ENDSEC
  0
EOF
