  0
SECTION
  2
HEADER
  9
$ACADVER
  1
AC1009
  9
$INSBASE
 10
3083.7419222077510312
 20
82.6476204530935235
 30
0.0
  9
$EXTMIN
 10
3077.5831144901371772
 20
81.5960165247874585
 30
-0.0000000000112498
  9
$EXTMAX
 10
3089.8410172000258171
 20
83.9530240261325247
 30
0.0000000000002956
  9
$LIMMIN
 10
0.0
 20
0.0
  9
$LIMMAX
 10
11.6929133858000007
 20
8.2677165353999982
  9
$ORTHOMODE
 70
     0
  9
$REGENMODE
 70
     1
  9
$FILLMODE
 70
     1
  9
$QTEXTMODE
 70
     0
  9
$MIRRTEXT
 70
     0
  9
$DRAGMODE
 70
     2
  9
$LTSCALE
 40
0.6431102362
  9
$OSMODE
 70
  3839
  9
$ATTMODE
 70
     1
  9
$TEXTSIZE
 40
0.2
  9
$TRACEWID
 40
0.05
  9
$TEXTSTYLE
  7
STANDARD
  9
$CLAYER
  8
0
  9
$CELTYPE
  6
BYLAYER
  9
$CECOLOR
 62
   256
  9
$DIMSCALE
 40
1.0
  9
$DIMASZ
 40
0.1875
  9
$DIMEXO
 40
0.0625
  9
$DIMDLI
 40
0.4443307087
  9
$DIMRND
 40
0.0
  9
$DIMDLE
 40
0.0
  9
$DIMEXE
 40
0.125
  9
$DIMTP
 40
0.01
  9
$DIMTM
 40
0.01
  9
$DIMTXT
 40
2.0
  9
$DIMCEN
 40
0.1052362205
  9
$DIMTSZ
 40
0.0
  9
$DIMTOL
 70
     1
  9
$DIMLIM
 70
     0
  9
$DIMTIH
 70
     1
  9
$DIMTOH
 70
     1
  9
$DIMSE1
 70
     0
  9
$DIMSE2
 70
     0
  9
$DIMTAD
 70
     0
  9
$DIMZIN
 70
     0
  9
$DIMBLK
  1

  9
$DIMASO
 70
     1
  9
$DIMSHO
 70
     1
  9
$DIMPOST
  1
\X
  9
$DIMAPOST
  1

  9
$DIMALT
 70
     1
  9
$DIMALTD
 70
     2
  9
$DIMALTF
 40
25.3999999999999986
  9
$DIMLFAC
 40
1.0
  9
$DIMTOFL
 70
     0
  9
$DIMTVP
 40
0.0
  9
$DIMTIX
 70
     0
  9
$DIMSOXD
 70
     0
  9
$DIMSAH
 70
     0
  9
$DIMBLK1
  1

  9
$DIMBLK2
  1

  9
$DIMSTYLE
  2
STANDARD
  9
$DIMCLRD
 70
     0
  9
$DIMCLRE
 70
     0
  9
$DIMCLRT
 70
     0
  9
$DIMTFAC
 40
1.0
  9
$DIMGAP
 40
0.09
  9
$LUNITS
 70
     2
  9
$LUPREC
 70
     4
  9
$SKETCHINC
 40
0.1
  9
$FILLETRAD
 40
0.0
  9
$AUNITS
 70
     0
  9
$AUPREC
 70
     0
  9
$MENU
  1
.
  9
$ELEVATION
 40
0.0
  9
$PELEVATION
 40
0.0
  9
$THICKNESS
 40
0.0
  9
$LIMCHECK
 70
     0
  9
$BLIPMODE
 70
     0
  9
$CHAMFERA
 40
0.0
  9
$CHAMFERB
 40
0.0
  9
$SKPOLY
 70
     0
  9
$TDCREATE
 40
2458060.468368056230247
  9
$TDUPDATE
 40
2460296.9100462961941957
  9
$TDINDWG
 40
0.4436413194
  9
$TDUSRTIMER
 40
0.4436413194
  9
$USRTIMER
 70
     1
  9
$ANGBASE
 50
0.0
  9
$ANGDIR
 70
     0
  9
$PDMODE
 70
     0
  9
$PDSIZE
 40
0.3125
  9
$PLINEWID
 40
0.0
  9
$COORDS
 70
     1
  9
$SPLFRAME
 70
     0
  9
$SPLINETYPE
 70
     6
  9
$SPLINESEGS
 70
     8
  9
$ATTDIA
 70
     1
  9
$ATTREQ
 70
     1
  9
$HANDLING
 70
     1
  9
$HANDSEED
  5
2C031
  9
$SURFTAB1
 70
     6
  9
$SURFTAB2
 70
     6
  9
$SURFTYPE
 70
     6
  9
$SURFU
 70
     6
  9
$SURFV
 70
     6
  9
$UCSNAME
  2

  9
$UCSORG
 10
0.0
 20
0.0
 30
0.0
  9
$UCSXDIR
 10
1.0
 20
0.0
 30
0.0
  9
$UCSYDIR
 10
0.0
 20
1.0
 30
0.0
  9
$PUCSNAME
  2

  9
$PUCSORG
 10
0.0
 20
0.0
 30
0.0
  9
$PUCSXDIR
 10
1.0
 20
0.0
 30
0.0
  9
$PUCSYDIR
 10
0.0
 20
1.0
 30
0.0
  9
$USERI1
 70
     0
  9
$USERI2
 70
     0
  9
$USERI3
 70
     0
  9
$USERI4
 70
     0
  9
$USERI5
 70
     0
  9
$USERR1
 40
0.0
  9
$USERR2
 40
0.0
  9
$USERR3
 40
0.0
  9
$USERR4
 40
0.0
  9
$USERR5
 40
0.0
  9
$WORLDVIEW
 70
     1
  9
$SHADEDGE
 70
     3
  9
$SHADEDIF
 70
    70
  9
$TILEMODE
 70
     1
  9
$MAXACTVP
 70
    64
  9
$PLIMCHECK
 70
     0
  9
$PEXTMIN
 10
1.0000000000000000E+20
 20
1.0000000000000000E+20
 30
1.0000000000000000E+20
  9
$PEXTMAX
 10
-1.0000000000000000E+20
 20
-1.0000000000000000E+20
 30
-1.0000000000000000E+20
  9
$PLIMMIN
 10
0.0
 20
0.0
  9
$PLIMMAX
 10
12.0
 20
9.0
  9
$UNITMODE
 70
     0
  9
$VISRETAIN
 70
     1
  9
$PLINEGEN
 70
     0
  9
$PSLTSCALE
 70
     1
  0
ENDSEC
  0
SECTION
  2
TABLES
  0
TABLE
  2
VPORT
 70
     1
  0
VPORT
  2
*ACTIVE
 70
     0
 10
0.0
 20
0.0
 11
1.0
 21
1.0
 12
-719.8320015377312302
 22
-43.2207419212899282
 13
0.0
 23
0.0
 14
1.0
 24
1.0
 15
0.0
 25
0.0
 16
0.0
 26
0.0
 36
17.1152628219792007
 17
3803.5440673828129547
 27
125.9952621967499056
 37
0.0
 40
5.7971440332691717
 41
2.1211111111111101
 42
50.0
 43
0.0
 44
0.0
 50
0.0
 51
0.0
 71
     0
 72
   100
 73
     1
 74
     1
 75
     0
 76
     0
 77
     0
 78
     0
  0
ENDTAB
  0
TABLE
  2
LTYPE
 70
     2
  0
LTYPE
  2
CONTINUOUS
 70
     0
  3
Solid line
 72
    65
 73
     0
 40
0.0
  0
LTYPE
  2
PHANTOM2
 70
     0
  3
___ _ _ ___ _ _ ___ _ _ ___ _ _
 72
    65
 73
     6
 40
1.25
 49
0.625
 49
-0.125
 49
0.125
 49
-0.125
 49
0.125
 49
-0.125
  0
ENDTAB
  0
TABLE
  2
LAYER
 70
     2
  0
LAYER
  2
0
 70
     0
 62
   255
  6
CONTINUOUS
  0
LAYER
  2
DEFPOINTS
 70
     0
 62
     7
  6
CONTINUOUS
  0
ENDTAB
  0
TABLE
  2
STYLE
 70
     1
  0
STYLE
  2
STANDARD
 70
     0
 40
0.0
 41
0.8
 50
0.0
 71
     0
 42
0.2
  3
txt
  4

  0
ENDTAB
  0
TABLE
  2
VIEW
 70
     0
  0
ENDTAB
  0
TABLE
  2
UCS
 70
     0
  0
ENDTAB
  0
TABLE
  2
APPID
 70
    10
  0
APPID
  2
ACAD
 70
     0
  0
APPID
  2
ACAD_MLEADERVER
 70
     0
  0
APPID
  2
ACAD_EXEMPT_FROM_CAD_STANDARDS
 70
     0
  0
APPID
  2
ACAD_NAV_VCDISPLAY
 70
     0
  0
APPID
  2
ACAECLAYERSTANDARD
 70
     0
  0
APPID
  2
ACCMTRANSPARENCY
 70
     0
  0
APPID
  2
ACAD_DSTYLE_DIMJAG
 70
     0
  0
APPID
  2
ACAD_DSTYLE_DIMTALN
 70
     0
  0
APPID
  2
ACDBATTR
 70
     0
  0
APPID
  2
DCO15
 70
     0
  0
ENDTAB
  0
TABLE
  2
DIMSTYLE
 70
     1
  0
DIMSTYLE
  2
STANDARD
 70
     0
  3

  4

  5

  6

  7

 40
1.0
 41
0.1875
 42
0.0625
 43
0.38
 44
0.125
 45
0.0
 46
0.0
 47
0.01
 48
0.01
140
0.15625
141
0.09
142
0.0
143
25.3999999999999986
144
1.0
145
0.0
146
1.0
147
0.09
 71
     1
 72
     0
 73
     1
 74
     1
 75
     0
 76
     0
 77
     0
 78
     4
170
     0
171
     2
172
     0
173
     0
174
     0
175
     0
176
     0
177
     0
178
     0
  0
ENDTAB
  0
ENDSEC
  0
SECTION
  2
BLOCKS
  0
BLOCK
  8
0
  2
$MODEL_SPACE
 70
     0
 10
0.0
 20
0.0
 30
0.0
  3
$MODEL_SPACE
  1

  0
ENDBLK
  5
21
  8
0
  0
BLOCK
 67
     1
  8
0
  2
$PAPER_SPACE
 70
     0
 10
0.0
 20
0.0
 30
0.0
  3
$PAPER_SPACE
  1

  0
ENDBLK
  5
1D
 67
     1
  8
0
  0
BLOCK
  8
0
  2
_FILLED
 70
     0
 10
0.0
 20
0.0
 30
0.0
  3
_FILLED
  1

  0
SOLID
  5
2BC44
  8
0
  6
BYBLOCK
 62
     0
 10
0.0
 20
0.0
 30
0.0
 11
-1.0
 21
0.1666666667
 31
0.0
 12
-1.0
 22
-0.1666666667
 32
0.0
 13
-1.0
 23
-0.1666666667
 33
0.0
  0
ENDBLK
  5
2BC45
  8
0
  6
BYBLOCK
 62
     0
  0
ENDSEC
  0
SECTION
  2
ENTITIES
  0
ATTDEF
  5
2913F
  8
DEFPOINTS
 10
3083.7429204542700063
 20
82.6516681117596761
 30
0.0
 40
0.001
  1
P34236-LV
  3

  2
MODELNUMBER
 70
     0
1001
ACDBATTR
1070
     0
1070
     1
  0
ATTDEF
  5
29140
  8
DEFPOINTS
 10
3083.7429204542700063
 20
82.6500014450930109
 30
0.0
 40
0.001
  1
GUISE
  3

  2
TRADENAME
 70
     0
1001
ACDBATTR
1070
     0
1070
     1
  0
ATTDEF
  5
29141
  8
DEFPOINTS
 10
3083.7429204542700063
 20
82.6483347784263458
 30
0.0
 40
0.001
  1
BATHROOM SINK FAUCET
  3

  2
PRODUCT
 70
     0
1001
ACDBATTR
1070
     0
1070
     1
  0
LINE
  5
2BC70
  8
0
 10
3083.131422207750802
 20
83.9471708467935542
 30
0.0
 11
3084.3524222077508057
 21
83.9471708467935542
 31
0.0
  0
ARC
  5
2BC71
  8
0
 10
3083.131422207750802
 20
83.9081708467935243
 30
0.0
 40
0.0389999999999988
 50
90.0
 51
180.0000000000015916
  0
LINE
  5
2BC72
  8
0
 10
3083.0924222077510422
 20
83.9081708467935243
 30
0.0
 11
3083.0924222077510422
 21
82.4471709530935186
 31
0.0
  0
LINE
  5
2BC73
  8
0
 10
3083.0924222077510422
 20
82.4471709530935186
 30
0.0
 11
3084.3914222077510203
 21
82.4471709530935186
 31
0.0
  0
ARC
  5
2BC74
  8
0
 10
3083.7419222077510312
 20
82.6476204530935235
 30
0.0
 40
0.6495000000000016
 50
197.9761600751535013
 51
342.01570233740091
  0
ARC
  5
2BC75
  8
0
 10
3083.7419222077510312
 20
82.6476204530935235
 30
0.0
 40
1.0499999999999989
 50
128.2118875050190923
 51
51.7881124949809077
  0
LINE
  5
2BC76
  8
0
 10
3084.3914222077510203
 20
82.4471709530935186
 30
0.0
 11
3084.3914222077510203
 21
83.9081708467935243
 31
0.0
  0
ARC
  5
2BC77
  8
0
 10
3084.3524222077508057
 20
83.9081708467935243
 30
0.0
 40
0.0389999999999988
 50
0.0
 51
90.0
  0
LINE
  5
2BC78
  8
0
 10
3077.8517883494509988
 20
83.9074330514935554
 30
0.0
 11
3080.2541033100510504
 21
83.9074330514935554
 31
0.0
  0
ARC
  5
2BC79
  8
0
 10
3080.2541033100510504
 20
83.8684330514935255
 30
0.0
 40
0.0389999999999997
 50
0.0
 51
90.0
  0
LINE
  5
2BC7A
  8
0
 10
3080.2931033100508103
 20
83.8684330514935255
 30
0.0
 11
3080.2931033100508103
 21
82.6476204530935235
 31
0.0
  0
ARC
  5
2BC7B
  8
0
 10
3079.741922207701009
 20
82.6476204530935235
 30
0.0
 40
0.5511811023500002
 50
180.0
 51
0.0
  0
LINE
  5
2BC7C
  8
0
 10
3079.1907411053512078
 20
82.6476204530935235
 30
0.0
 11
3079.1907411053512078
 21
83.6318724215935276
 31
0.0
  0
ARC
  5
2BC7D
  8
0
 10
3077.8517883494509988
 20
83.8684330514935255
 30
0.0
 40
0.0389999999999988
 50
90.0
 51
180.0000000000015916
  0
LINE
  5
2BC7E
  8
0
 10
3077.8127883494507842
 20
83.8684330514935255
 30
0.0
 11
3077.8127883494507842
 21
83.6712724215935282
 31
0.0
  0
ARC
  5
2BC7F
  8
0
 10
3077.8521883494508984
 20
83.6712724215935282
 30
0.0
 40
0.0394000000000014
 50
180.0000000000015916
 51
270.0
  0
LINE
  5
2BC80
  8
0
 10
3077.8521883494508984
 20
83.6318724215935276
 30
0.0
 11
3080.2537033100511508
 21
83.6318724215931866
 31
0.0
  0
ARC
  5
2BC81
  8
0
 10
3080.2537033100511508
 20
83.6712724215931729
 30
0.0
 40
0.0393999999999935
 50
270.0
 51
0.0000000005227305
  0
ARC
  5
2BC82
  8
0
 10
3079.7419222077510312
 20
82.6476204530935235
 30
0.0
 40
1.0
 50
125.7282545272155971
 51
54.2754915729150724
  0
ARC
  5
2BC83
  8
0
 10
3079.1114051944528001
 20
83.5237739456157584
 30
0.0
 40
0.0794430525699589
 50
305.8930525008286736
 51
356.8309977094784244
  0
ARC
  5
2BC84
  8
0
 10
3080.3703202222368418
 20
83.522721113107778
 30
0.0
 40
0.0773549265533466
 50
183.4231062874532086
 51
234.8728390343327135
  0
LINE
  5
2BC85
  8
0
 10
3089.6320560660510637
 20
83.9074330514935554
 30
0.0
 11
3087.2297411054510121
 21
83.9074330514935554
 31
0.0
  0
ARC
  5
2BC86
  8
0
 10
3087.2297411054510121
 20
83.8684330514935255
 30
0.0
 40
0.0389999999999997
 50
90.0
 51
180.0
  0
LINE
  5
2BC87
  8
0
 10
3087.1907411054507975
 20
83.8684330514935255
 30
0.0
 11
3087.1907411054507975
 21
82.6476204530935235
 31
0.0
  0
ARC
  5
2BC88
  8
0
 10
3087.7419222078010534
 20
82.6476204530935235
 30
0.0
 40
0.5511811023500002
 50
180.0
 51
0.0
  0
LINE
  5
2BC89
  8
0
 10
3088.2931033101508547
 20
82.6476204530935235
 30
0.0
 11
3088.2931033101508547
 21
83.6318724215935276
 31
0.0
  0
ARC
  5
2BC8A
  8
0
 10
3089.6320560660510637
 20
83.8684330514935255
 30
0.0
 40
0.0389999999999988
 50
359.9999999999984084
 51
90.0
  0
LINE
  5
2BC8B
  8
0
 10
3089.6710560660508236
 20
83.8684330514935255
 30
0.0
 11
3089.6710560660508236
 21
83.6712724215935282
 31
0.0
  0
ARC
  5
2BC8C
  8
0
 10
3089.6316560660511641
 20
83.6712724215935282
 30
0.0
 40
0.0394000000000014
 50
270.0
 51
359.9999999999984084
  0
LINE
  5
2BC8D
  8
0
 10
3089.6316560660511641
 20
83.6318724215935276
 30
0.0
 11
3087.2301411054509117
 21
83.6318724215931866
 31
0.0
  0
ARC
  5
2BC8E
  8
0
 10
3087.2301411054509117
 20
83.6712724215931729
 30
0.0
 40
0.0393999999999935
 50
179.9999999994772111
 51
270.0
  0
ARC
  5
2BC8F
  8
0
 10
3087.7419222077510312
 20
82.6476204530935235
 30
0.0
 40
1.0
 50
125.7245084270848992
 51
54.2717454727843389
  0
ARC
  5
2BC90
  8
0
 10
3088.3724392210478982
 20
83.5237739456157584
 30
0.0
 40
0.0794430525699589
 50
183.1690022905214903
 51
234.106947499171298
  0
ARC
  5
2BC91
  8
0
 10
3087.1135241932661302
 20
83.522721113107778
 30
0.0
 40
0.0773549265533466
 50
305.1271609656672013
 51
356.5768937125467914
  0
ENDSEC
  0
EOF
