  0
SECTION
  2
HEADER
  9
$ACADVER
  1
AC1009
  9
$INSBASE
 10
3447.4658841509831291
 20
208.7902078087842881
 30
0.0
  9
$EXTMIN
 10
3444.593713025597026
 20
204.5298131904046954
 30
-0.0000000349181948
  9
$EXTMAX
 10
3450.369880664088214
 20
208.8048369030190088
 30
0.0000000814935746
  9
$LIMMIN
 10
0.0
 20
0.0
  9
$LIMMAX
 10
11.6929133858000007
 20
8.2677165353999982
  9
$ORTHOMODE
 70
     0
  9
$REGENMODE
 70
     1
  9
$FILLMODE
 70
     1
  9
$QTEXTMODE
 70
     0
  9
$MIRRTEXT
 70
     0
  9
$DRAGMODE
 70
     2
  9
$LTSCALE
 40
0.6431102362
  9
$OSMODE
 70
  4095
  9
$ATTMODE
 70
     1
  9
$TEXTSIZE
 40
0.2
  9
$TRACEWID
 40
0.05
  9
$TEXTSTYLE
  7
STANDARD
  9
$CLAYER
  8
0
  9
$CELTYPE
  6
BYLAYER
  9
$CECOLOR
 62
   256
  9
$DIMSCALE
 40
1.0
  9
$DIMASZ
 40
0.1875
  9
$DIMEXO
 40
0.0625
  9
$DIMDLI
 40
0.4443307087
  9
$DIMRND
 40
0.0
  9
$DIMDLE
 40
0.0
  9
$DIMEXE
 40
0.125
  9
$DIMTP
 40
0.01
  9
$DIMTM
 40
0.01
  9
$DIMTXT
 40
2.0
  9
$DIMCEN
 40
0.1052362205
  9
$DIMTSZ
 40
0.0
  9
$DIMTOL
 70
     1
  9
$DIMLIM
 70
     0
  9
$DIMTIH
 70
     1
  9
$DIMTOH
 70
     1
  9
$DIMSE1
 70
     0
  9
$DIMSE2
 70
     0
  9
$DIMTAD
 70
     0
  9
$DIMZIN
 70
     0
  9
$DIMBLK
  1

  9
$DIMASO
 70
     1
  9
$DIMSHO
 70
     1
  9
$DIMPOST
  1
\X
  9
$DIMAPOST
  1

  9
$DIMALT
 70
     1
  9
$DIMALTD
 70
     2
  9
$DIMALTF
 40
25.3999999999999986
  9
$DIMLFAC
 40
1.0
  9
$DIMTOFL
 70
     0
  9
$DIMTVP
 40
0.0
  9
$DIMTIX
 70
     0
  9
$DIMSOXD
 70
     0
  9
$DIMSAH
 70
     0
  9
$DIMBLK1
  1

  9
$DIMBLK2
  1

  9
$DIMSTYLE
  2
STANDARD
  9
$DIMCLRD
 70
     0
  9
$DIMCLRE
 70
     0
  9
$DIMCLRT
 70
     0
  9
$DIMTFAC
 40
1.0
  9
$DIMGAP
 40
0.09
  9
$LUNITS
 70
     2
  9
$LUPREC
 70
     4
  9
$SKETCHINC
 40
0.1
  9
$FILLETRAD
 40
0.0
  9
$AUNITS
 70
     0
  9
$AUPREC
 70
     0
  9
$MENU
  1
.
  9
$ELEVATION
 40
0.0
  9
$PELEVATION
 40
0.0
  9
$THICKNESS
 40
0.0
  9
$LIMCHECK
 70
     0
  9
$BLIPMODE
 70
     0
  9
$CHAMFERA
 40
0.0
  9
$CHAMFERB
 40
0.0
  9
$SKPOLY
 70
     0
  9
$TDCREATE
 40
2458060.468368056230247
  9
$TDUPDATE
 40
2460299.8050231481902301
  9
$TDINDWG
 40
0.371858912
  9
$TDUSRTIMER
 40
0.371858912
  9
$USRTIMER
 70
     1
  9
$ANGBASE
 50
0.0
  9
$ANGDIR
 70
     0
  9
$PDMODE
 70
     0
  9
$PDSIZE
 40
0.3125
  9
$PLINEWID
 40
0.0
  9
$COORDS
 70
     1
  9
$SPLFRAME
 70
     0
  9
$SPLINETYPE
 70
     6
  9
$SPLINESEGS
 70
     8
  9
$ATTDIA
 70
     1
  9
$ATTREQ
 70
     1
  9
$HANDLING
 70
     1
  9
$HANDSEED
  5
BD12
  9
$SURFTAB1
 70
     6
  9
$SURFTAB2
 70
     6
  9
$SURFTYPE
 70
     6
  9
$SURFU
 70
     6
  9
$SURFV
 70
     6
  9
$UCSNAME
  2

  9
$UCSORG
 10
0.0
 20
0.0
 30
0.0
  9
$UCSXDIR
 10
1.0
 20
0.0
 30
0.0
  9
$UCSYDIR
 10
0.0
 20
1.0
 30
0.0
  9
$PUCSNAME
  2

  9
$PUCSORG
 10
0.0
 20
0.0
 30
0.0
  9
$PUCSXDIR
 10
1.0
 20
0.0
 30
0.0
  9
$PUCSYDIR
 10
0.0
 20
1.0
 30
0.0
  9
$USERI1
 70
     0
  9
$USERI2
 70
     0
  9
$USERI3
 70
     0
  9
$USERI4
 70
     0
  9
$USERI5
 70
     0
  9
$USERR1
 40
0.0
  9
$USERR2
 40
0.0
  9
$USERR3
 40
0.0
  9
$USERR4
 40
0.0
  9
$USERR5
 40
0.0
  9
$WORLDVIEW
 70
     1
  9
$SHADEDGE
 70
     3
  9
$SHADEDIF
 70
    70
  9
$TILEMODE
 70
     1
  9
$MAXACTVP
 70
    64
  9
$PLIMCHECK
 70
     0
  9
$PEXTMIN
 10
1.0000000000000000E+20
 20
1.0000000000000000E+20
 30
1.0000000000000000E+20
  9
$PEXTMAX
 10
-1.0000000000000000E+20
 20
-1.0000000000000000E+20
 30
-1.0000000000000000E+20
  9
$PLIMMIN
 10
0.0
 20
0.0
  9
$PLIMMAX
 10
12.0
 20
9.0
  9
$UNITMODE
 70
     0
  9
$VISRETAIN
 70
     1
  9
$PLINEGEN
 70
     0
  9
$PSLTSCALE
 70
     1
  0
ENDSEC
  0
SECTION
  2
TABLES
  0
TABLE
  2
VPORT
 70
     1
  0
VPORT
  2
*ACTIVE
 70
     0
 10
0.0
 20
0.0
 11
1.0
 21
1.0
 12
165.1716161807798926
 22
9.3405453268885026
 13
0.0
 23
0.0
 14
1.0
 24
1.0
 15
0.0
 25
0.0
 16
0.0
 26
0.0
 36
110.7576973449536979
 17
3282.3101806640620453
 27
197.3267797198232927
 37
0.0
 40
4.3087295500331431
 41
2.498684210526315
 42
50.0
 43
0.0
 44
0.0
 50
0.0
 51
0.0
 71
     0
 72
   100
 73
     1
 74
     1
 75
     0
 76
     0
 77
     0
 78
     0
  0
ENDTAB
  0
TABLE
  2
LTYPE
 70
     2
  0
LTYPE
  2
CONTINUOUS
 70
     0
  3
Solid line
 72
    65
 73
     0
 40
0.0
  0
LTYPE
  2
PHANTOM2
 70
     0
  3
___ _ _ ___ _ _ ___ _ _ ___ _ _
 72
    65
 73
     6
 40
1.25
 49
0.625
 49
-0.125
 49
0.125
 49
-0.125
 49
0.125
 49
-0.125
  0
ENDTAB
  0
TABLE
  2
LAYER
 70
     2
  0
LAYER
  2
0
 70
     0
 62
   255
  6
CONTINUOUS
  0
LAYER
  2
DEFPOINTS
 70
     0
 62
     7
  6
CONTINUOUS
  0
ENDTAB
  0
TABLE
  2
STYLE
 70
     1
  0
STYLE
  2
STANDARD
 70
     0
 40
0.0
 41
0.8
 50
0.0
 71
     0
 42
0.2
  3
txt
  4

  0
ENDTAB
  0
TABLE
  2
VIEW
 70
     0
  0
ENDTAB
  0
TABLE
  2
UCS
 70
     0
  0
ENDTAB
  0
TABLE
  2
APPID
 70
     9
  0
APPID
  2
ACAD
 70
     0
  0
APPID
  2
ACAD_MLEADERVER
 70
     0
  0
APPID
  2
ACAD_EXEMPT_FROM_CAD_STANDARDS
 70
     0
  0
APPID
  2
ACAD_NAV_VCDISPLAY
 70
     0
  0
APPID
  2
ACAECLAYERSTANDARD
 70
     0
  0
APPID
  2
ACCMTRANSPARENCY
 70
     0
  0
APPID
  2
ACAD_DSTYLE_DIMJAG
 70
     0
  0
APPID
  2
ACAD_DSTYLE_DIMTALN
 70
     0
  0
APPID
  2
ACDBATTR
 70
     0
  0
ENDTAB
  0
TABLE
  2
DIMSTYLE
 70
     1
  0
DIMSTYLE
  2
STANDARD
 70
     0
  3

  4

  5

  6

  7

 40
1.0
 41
0.1875
 42
0.0625
 43
0.38
 44
0.125
 45
0.0
 46
0.0
 47
0.01
 48
0.01
140
0.15625
141
0.09
142
0.0
143
25.3999999999999986
144
1.0
145
0.0
146
1.0
147
0.09
 71
     1
 72
     0
 73
     1
 74
     1
 75
     0
 76
     0
 77
     0
 78
     4
170
     0
171
     2
172
     0
173
     0
174
     0
175
     0
176
     0
177
     0
178
     0
  0
ENDTAB
  0
ENDSEC
  0
SECTION
  2
BLOCKS
  0
BLOCK
  8
0
  2
$MODEL_SPACE
 70
     0
 10
0.0
 20
0.0
 30
0.0
  3
$MODEL_SPACE
  1

  0
ENDBLK
  5
21
  8
0
  0
BLOCK
 67
     1
  8
0
  2
$PAPER_SPACE
 70
     0
 10
0.0
 20
0.0
 30
0.0
  3
$PAPER_SPACE
  1

  0
ENDBLK
  5
1D
 67
     1
  8
0
  0
BLOCK
  8
0
  2
_FILLED
 70
     0
 10
0.0
 20
0.0
 30
0.0
  3
_FILLED
  1

  0
SOLID
  5
940C
  8
0
  6
BYBLOCK
 62
     0
 10
0.0
 20
0.0
 30
0.0
 11
-1.0
 21
0.1666666667
 31
0.0
 12
-1.0
 22
-0.1666666667
 32
0.0
 13
-1.0
 23
-0.1666666667
 33
0.0
  0
ENDBLK
  5
940D
  8
0
  6
BYBLOCK
 62
     0
  0
BLOCK
  8
0
  2
_CLOSED
 70
     0
 10
0.0
 20
0.0
 30
0.0
  3
_CLOSED
  1

  0
LINE
  5
9E31
  8
0
  6
BYBLOCK
 62
     0
 10
0.0
 20
0.0
 30
0.0
 11
-1.0
 21
0.1666666667
 31
0.0
  0
LINE
  5
9E32
  8
0
  6
BYBLOCK
 62
     0
 10
-1.0
 20
0.1666666667
 30
0.0
 11
-1.0
 21
-0.1666666667
 31
0.0
  0
LINE
  5
9E33
  8
0
  6
BYBLOCK
 62
     0
 10
-1.0
 20
-0.1666666667
 30
0.0
 11
0.0
 21
0.0
 31
0.0
  0
LINE
  5
9E34
  8
0
  6
BYBLOCK
 62
     0
 10
-1.0
 20
0.0
 30
0.0
 11
0.0
 21
0.0
 31
0.0
  0
ENDBLK
  5
9E35
  8
0
  6
BYBLOCK
 62
     0
  0
ENDSEC
  0
SECTION
  2
ENTITIES
  0
ATTDEF
  5
3930
  8
DEFPOINTS
 10
3447.4626959198330951
 20
208.7940319748101103
 30
0.0
 40
0.001
  1
P34242-LV
  3

  2
MODELNUMBER
 70
     0
1001
ACDBATTR
1070
     0
1070
     1
  0
ATTDEF
  5
3931
  8
DEFPOINTS
 10
3447.4626959198330951
 20
208.792365308143502
 30
0.0
 40
0.001
  1
GUISE
  3

  2
TRADENAME
 70
     0
1001
ACDBATTR
1070
     0
1070
     1
  0
ATTDEF
  5
3932
  8
DEFPOINTS
 10
3447.4626959198330951
 20
208.7906986414768085
 30
0.0
 40
0.001
  1
VALVE TRIM
  3

  2
PRODUCT
 70
     0
1001
ACDBATTR
1070
     0
1070
     1
  0
LINE
  5
BC1E
  8
0
 10
3447.1953364344572037
 20
204.5400501284844097
 30
0.0
 11
3449.5563999126170529
 21
204.5400501284844097
 31
0.0
  0
LINE
  5
BC1F
  8
0
 10
3444.7658841509828562
 20
208.7902078087842881
 30
0.0
 11
3450.1658841509829472
 21
208.7902078087842881
 31
0.0
  0
LINE
  5
BC20
  8
0
 10
3444.8156650804899073
 20
208.1902078087844075
 30
0.0
 11
3450.1161032214749866
 21
208.1902078087844075
 31
0.0
  0
LINE
  5
BC21
  8
0
 10
3444.7658841509828562
 20
208.7902078087842881
 30
0.0
 11
3444.7756711726838148
 21
208.2295097125249868
 31
0.0
  0
ARC
  5
BC22
  8
0
 10
3444.8156650804899073
 20
208.2302078087843995
 30
0.0
 40
0.04
 50
181.0000000026257112
 51
270.0
  0
LINE
  5
BC23
  8
0
 10
3446.566060224883131
 20
208.1602078087842926
 30
0.0
 11
3448.3657080770831271
 21
208.1602078087842926
 31
0.0
  0
LINE
  5
BC24
  8
0
 10
3446.6664078028829863
 20
208.1602078087842926
 30
0.0
 11
3446.6660556552337766
 21
208.1803823328486942
 31
0.0
  0
ARC
  5
BC25
  8
0
 10
3446.6560507117437737
 20
208.1802076959000942
 30
0.0
 40
0.0100064675247428
 50
1.0000000596102949
 51
87.957953094231442
  0
LINE
  5
BC26
  8
0
 10
3446.5823098353348541
 20
206.6462813661260896
 30
0.0
 11
3446.5560617479309258
 21
208.1500332847197967
 31
0.0
  0
LINE
  5
BC27
  8
0
 10
3446.6223037431400371
 20
206.6069794623842881
 30
0.0
 11
3448.3094645588248568
 21
206.6069794623842881
 31
0.0
  0
ARC
  5
BC28
  8
0
 10
3446.6223037431400371
 20
206.6469794623843086
 30
0.0
 40
0.04
 50
181.0000000010799965
 51
270.0
  0
ARC
  5
BC29
  8
0
 10
3446.566060224883131
 20
208.1502078087843017
 30
0.0
 40
0.01
 50
90.0
 51
181.000000001073488
  0
LINE
  5
BC2A
  8
0
 10
3446.8319041374829794
 20
206.5869794623843063
 30
0.0
 11
3448.099864164482824
 21
206.5869794623843063
 31
0.0
  0
LINE
  5
BC2B
  8
0
 10
3446.8169064220560358
 20
206.5722412484826975
 30
0.0
 11
3446.8072171918829554
 21
206.0171456274026127
 31
0.0
  0
ARC
  5
BC2C
  8
0
 10
3446.8319041374829794
 20
206.5719794623844052
 30
0.0
 40
0.015
 50
90.0
 51
178.9999999932844901
  0
LINE
  5
BC2D
  8
0
 10
3446.8466111910720429
 20
205.9770580025843003
 30
0.0
 11
3446.9647711766710927
 21
205.9770580025843003
 31
0.0
  0
ARC
  5
BC2E
  8
0
 10
3446.8466111910720429
 20
206.0164580025843861
 30
0.0
 40
0.0394
 50
178.9999999932942956
 51
270.0
  0
ARC
  5
BC2F
  8
0
 10
3447.4804096471430057
 20
207.9680166047735952
 30
0.0
 40
1.899435379987078
 50
260.6828259079354098
 51
269.5618394044597039
  0
ARC
  5
BC30
  8
0
 10
3446.8584765774257903
 20
204.1772229182074909
 30
0.0
 40
1.942037972428251
 50
80.6828259079353955
 51
84.6110715989728135
  0
ARC
  5
BC31
  8
0
 10
3447.0391295397548674
 20
206.0922982986936915
 30
0.0
 40
0.0184607825354115
 50
84.6061313175564322
 51
173.1941228061236018
  0
LINE
  5
BC32
  8
0
 10
3447.0207988437550739
 20
206.0944860089119004
 30
0.0
 11
3447.0453592805970402
 21
204.6874322438613945
 31
0.0
  0
ARC
  5
BC33
  8
0
 10
3446.9647711766710927
 20
205.9179580025842995
 30
0.0
 40
0.0591
 50
1.000009037794868
 51
90.0
  0
ARC
  5
BC34
  8
0
 10
3447.1953364344572037
 20
204.6900501284843017
 30
0.0
 40
0.15
 50
181.0000090377932054
 51
270.0
  0
LINE
  5
BC35
  8
0
 10
3447.0908841509831291
 20
206.6069794623842881
 30
0.0
 11
3447.0908841509831291
 21
206.5869794623843063
 31
0.0
  0
LINE
  5
BC36
  8
0
 10
3450.1658841509829472
 20
208.7902078087842881
 30
0.0
 11
3450.1560971292819886
 21
208.2295097125249868
 31
0.0
  0
ARC
  5
BC37
  8
0
 10
3450.1161032214749866
 20
208.2302078087843995
 30
0.0
 40
0.04
 50
270.0
 51
358.9999999973742888
  0
LINE
  5
BC38
  8
0
 10
3448.2653604990828171
 20
208.1602078087842926
 30
0.0
 11
3448.2657126467311173
 21
208.1803823328486942
 31
0.0
  0
ARC
  5
BC39
  8
0
 10
3448.2757175902229392
 20
208.1802076959000942
 30
0.0
 40
0.0100064675247428
 50
92.042046905768558
 51
178.9999999403896993
  0
LINE
  5
BC3A
  8
0
 10
3448.3494584666318588
 20
206.6462813661260896
 30
0.0
 11
3448.3757065540348776
 21
208.1500332847197967
 31
0.0
  0
ARC
  5
BC3B
  8
0
 10
3448.3094645588248568
 20
206.6469794623843086
 30
0.0
 40
0.04
 50
270.0
 51
358.9999999989199182
  0
ARC
  5
BC3C
  8
0
 10
3448.3657080770831271
 20
208.1502078087843017
 30
0.0
 40
0.01
 50
358.9999999989263983
 51
90.0
  0
LINE
  5
BC3D
  8
0
 10
3448.1148618799102223
 20
206.5722412484826975
 30
0.0
 11
3448.1245511100819385
 21
206.0171456274026127
 31
0.0
  0
ARC
  5
BC3E
  8
0
 10
3448.099864164482824
 20
206.5719794623844052
 30
0.0
 40
0.015
 50
1.0000000067154591
 51
90.0
  0
LINE
  5
BC3F
  8
0
 10
3448.0851571108942153
 20
205.9770580025843003
 30
0.0
 11
3447.9669971252951655
 21
205.9770580025843003
 31
0.0
  0
ARC
  5
BC40
  8
0
 10
3448.0851571108942153
 20
206.0164580025843861
 30
0.0
 40
0.0394
 50
270.0
 51
1.0000000067056889
  0
ARC
  5
BC41
  8
0
 10
3447.4513586548227977
 20
207.9680166047735952
 30
0.0
 40
1.899435379987078
 50
270.4381605955401824
 51
279.3171740920645902
  0
ARC
  5
BC42
  8
0
 10
3448.0732917245400131
 20
204.1772229182074909
 30
0.0
 40
1.942037972428251
 50
95.3889284010272007
 51
99.3171740920646045
  0
ARC
  5
BC43
  8
0
 10
3447.892638762210936
 20
206.0922982986936915
 30
0.0
 40
0.0184607825354115
 50
6.805877193876368
 51
95.3938686824435536
  0
LINE
  5
BC44
  8
0
 10
3447.9109694582111842
 20
206.0944860089119004
 30
0.0
 11
3447.9007311166719774
 21
205.5079371171995888
 31
0.0
  0
ARC
  5
BC45
  8
0
 10
3447.9669971252951655
 20
205.9179580025842995
 30
0.0
 40
0.0591
 50
90.0
 51
178.9999909622050893
  0
LINE
  5
BC46
  8
0
 10
3447.8408841509831291
 20
206.6069794623842881
 30
0.0
 11
3447.8408841509831291
 21
206.5869794623843063
 31
0.0
  0
LINE
  5
BC47
  8
0
 10
3449.6351879109947731
 20
204.6174748788560009
 30
0.0
 11
3449.6475555529459598
 21
205.3260166111560068
 31
0.0
  0
LINE
  5
BC48
  8
0
 10
3449.5687675545677848
 20
205.406191860784304
 30
0.0
 11
3448.0007158859129959
 21
205.406191860784304
 31
0.0
  0
ARC
  5
BC49
  8
0
 10
3449.5563999126170529
 20
204.6188501284844108
 30
0.0
 40
0.0788
 50
270.0
 51
358.9999999992081143
  0
ARC
  5
BC4A
  8
0
 10
3449.5687675545677848
 20
205.3273918607843029
 30
0.0
 40
0.0788
 50
358.9999999992081143
 51
90.0
  0
ARC
  5
BC4B
  8
0
 10
3448.0007158859129959
 20
205.5061918607842983
 30
0.0
 40
0.1
 50
178.9999909622067946
 51
270.0
  0
ENDSEC
  0
EOF
