  0
SECTION
  2
HEADER
  9
$ACADVER
  1
AC1009
  9
$INSBASE
 10
3441.8538444511268608
 20
206.5506914001607868
 30
0.0
  9
$EXTMIN
 10
3437.6036867707271085
 20
203.8506914001607981
 30
0.0
  9
$EXTMAX
 10
3441.865080550897801
 20
209.2506914001606901
 30
0.0
  9
$LIMMIN
 10
0.0
 20
0.0
  9
$LIMMAX
 10
11.6929133858000007
 20
8.2677165353999982
  9
$ORTHOMODE
 70
     0
  9
$REGENMODE
 70
     1
  9
$FILLMODE
 70
     1
  9
$QTEXTMODE
 70
     0
  9
$MIRRTEXT
 70
     0
  9
$DRAGMODE
 70
     2
  9
$LTSCALE
 40
0.6431102362
  9
$OSMODE
 70
  4095
  9
$ATTMODE
 70
     1
  9
$TEXTSIZE
 40
0.2
  9
$TRACEWID
 40
0.05
  9
$TEXTSTYLE
  7
STANDARD
  9
$CLAYER
  8
0
  9
$CELTYPE
  6
BYLAYER
  9
$CECOLOR
 62
   256
  9
$DIMSCALE
 40
1.0
  9
$DIMASZ
 40
0.1875
  9
$DIMEXO
 40
0.0625
  9
$DIMDLI
 40
0.4443307087
  9
$DIMRND
 40
0.0
  9
$DIMDLE
 40
0.0
  9
$DIMEXE
 40
0.125
  9
$DIMTP
 40
0.01
  9
$DIMTM
 40
0.01
  9
$DIMTXT
 40
2.0
  9
$DIMCEN
 40
0.1052362205
  9
$DIMTSZ
 40
0.0
  9
$DIMTOL
 70
     1
  9
$DIMLIM
 70
     0
  9
$DIMTIH
 70
     1
  9
$DIMTOH
 70
     1
  9
$DIMSE1
 70
     0
  9
$DIMSE2
 70
     0
  9
$DIMTAD
 70
     0
  9
$DIMZIN
 70
     0
  9
$DIMBLK
  1

  9
$DIMASO
 70
     1
  9
$DIMSHO
 70
     1
  9
$DIMPOST
  1
\X
  9
$DIMAPOST
  1

  9
$DIMALT
 70
     1
  9
$DIMALTD
 70
     2
  9
$DIMALTF
 40
25.3999999999999986
  9
$DIMLFAC
 40
1.0
  9
$DIMTOFL
 70
     0
  9
$DIMTVP
 40
0.0
  9
$DIMTIX
 70
     0
  9
$DIMSOXD
 70
     0
  9
$DIMSAH
 70
     0
  9
$DIMBLK1
  1

  9
$DIMBLK2
  1

  9
$DIMSTYLE
  2
STANDARD
  9
$DIMCLRD
 70
     0
  9
$DIMCLRE
 70
     0
  9
$DIMCLRT
 70
     0
  9
$DIMTFAC
 40
1.0
  9
$DIMGAP
 40
0.09
  9
$LUNITS
 70
     2
  9
$LUPREC
 70
     4
  9
$SKETCHINC
 40
0.1
  9
$FILLETRAD
 40
0.0
  9
$AUNITS
 70
     0
  9
$AUPREC
 70
     0
  9
$MENU
  1
.
  9
$ELEVATION
 40
0.0
  9
$PELEVATION
 40
0.0
  9
$THICKNESS
 40
0.0
  9
$LIMCHECK
 70
     0
  9
$BLIPMODE
 70
     0
  9
$CHAMFERA
 40
0.0
  9
$CHAMFERB
 40
0.0
  9
$SKPOLY
 70
     0
  9
$TDCREATE
 40
2458060.468368056230247
  9
$TDUPDATE
 40
2460299.8052546298131347
  9
$TDINDWG
 40
0.3722292824
  9
$TDUSRTIMER
 40
0.3722292824
  9
$USRTIMER
 70
     1
  9
$ANGBASE
 50
0.0
  9
$ANGDIR
 70
     0
  9
$PDMODE
 70
     0
  9
$PDSIZE
 40
0.3125
  9
$PLINEWID
 40
0.0
  9
$COORDS
 70
     1
  9
$SPLFRAME
 70
     0
  9
$SPLINETYPE
 70
     6
  9
$SPLINESEGS
 70
     8
  9
$ATTDIA
 70
     1
  9
$ATTREQ
 70
     1
  9
$HANDLING
 70
     1
  9
$HANDSEED
  5
BCAB
  9
$SURFTAB1
 70
     6
  9
$SURFTAB2
 70
     6
  9
$SURFTYPE
 70
     6
  9
$SURFU
 70
     6
  9
$SURFV
 70
     6
  9
$UCSNAME
  2

  9
$UCSORG
 10
0.0
 20
0.0
 30
0.0
  9
$UCSXDIR
 10
1.0
 20
0.0
 30
0.0
  9
$UCSYDIR
 10
0.0
 20
1.0
 30
0.0
  9
$PUCSNAME
  2

  9
$PUCSORG
 10
0.0
 20
0.0
 30
0.0
  9
$PUCSXDIR
 10
1.0
 20
0.0
 30
0.0
  9
$PUCSYDIR
 10
0.0
 20
1.0
 30
0.0
  9
$USERI1
 70
     0
  9
$USERI2
 70
     0
  9
$USERI3
 70
     0
  9
$USERI4
 70
     0
  9
$USERI5
 70
     0
  9
$USERR1
 40
0.0
  9
$USERR2
 40
0.0
  9
$USERR3
 40
0.0
  9
$USERR4
 40
0.0
  9
$USERR5
 40
0.0
  9
$WORLDVIEW
 70
     1
  9
$SHADEDGE
 70
     3
  9
$SHADEDIF
 70
    70
  9
$TILEMODE
 70
     1
  9
$MAXACTVP
 70
    64
  9
$PLIMCHECK
 70
     0
  9
$PEXTMIN
 10
1.0000000000000000E+20
 20
1.0000000000000000E+20
 30
1.0000000000000000E+20
  9
$PEXTMAX
 10
-1.0000000000000000E+20
 20
-1.0000000000000000E+20
 30
-1.0000000000000000E+20
  9
$PLIMMIN
 10
0.0
 20
0.0
  9
$PLIMMAX
 10
12.0
 20
9.0
  9
$UNITMODE
 70
     0
  9
$VISRETAIN
 70
     1
  9
$PLINEGEN
 70
     0
  9
$PSLTSCALE
 70
     1
  0
ENDSEC
  0
SECTION
  2
TABLES
  0
TABLE
  2
VPORT
 70
     1
  0
VPORT
  2
*ACTIVE
 70
     0
 10
0.0
 20
0.0
 11
1.0
 21
1.0
 12
157.4242029967502106
 22
9.223911680337423
 13
0.0
 23
0.0
 14
1.0
 24
1.0
 15
0.0
 25
0.0
 16
0.0
 26
0.0
 36
110.7576973449536979
 17
3282.3101806640620453
 27
197.3267797198232927
 37
0.0
 40
5.4425755584756947
 41
2.498684210526315
 42
50.0
 43
0.0
 44
0.0
 50
0.0
 51
0.0
 71
     0
 72
   100
 73
     1
 74
     1
 75
     0
 76
     0
 77
     0
 78
     0
  0
ENDTAB
  0
TABLE
  2
LTYPE
 70
     2
  0
LTYPE
  2
CONTINUOUS
 70
     0
  3
Solid line
 72
    65
 73
     0
 40
0.0
  0
LTYPE
  2
PHANTOM2
 70
     0
  3
___ _ _ ___ _ _ ___ _ _ ___ _ _
 72
    65
 73
     6
 40
1.25
 49
0.625
 49
-0.125
 49
0.125
 49
-0.125
 49
0.125
 49
-0.125
  0
ENDTAB
  0
TABLE
  2
LAYER
 70
     2
  0
LAYER
  2
0
 70
     0
 62
   255
  6
CONTINUOUS
  0
LAYER
  2
DEFPOINTS
 70
     0
 62
     7
  6
CONTINUOUS
  0
ENDTAB
  0
TABLE
  2
STYLE
 70
     1
  0
STYLE
  2
STANDARD
 70
     0
 40
0.0
 41
0.8
 50
0.0
 71
     0
 42
0.2
  3
txt
  4

  0
ENDTAB
  0
TABLE
  2
VIEW
 70
     0
  0
ENDTAB
  0
TABLE
  2
UCS
 70
     0
  0
ENDTAB
  0
TABLE
  2
APPID
 70
     9
  0
APPID
  2
ACAD
 70
     0
  0
APPID
  2
ACAD_MLEADERVER
 70
     0
  0
APPID
  2
ACAD_EXEMPT_FROM_CAD_STANDARDS
 70
     0
  0
APPID
  2
ACAD_NAV_VCDISPLAY
 70
     0
  0
APPID
  2
ACAECLAYERSTANDARD
 70
     0
  0
APPID
  2
ACCMTRANSPARENCY
 70
     0
  0
APPID
  2
ACAD_DSTYLE_DIMJAG
 70
     0
  0
APPID
  2
ACAD_DSTYLE_DIMTALN
 70
     0
  0
APPID
  2
ACDBATTR
 70
     0
  0
ENDTAB
  0
TABLE
  2
DIMSTYLE
 70
     1
  0
DIMSTYLE
  2
STANDARD
 70
     0
  3

  4

  5

  6

  7

 40
1.0
 41
0.1875
 42
0.0625
 43
0.38
 44
0.125
 45
0.0
 46
0.0
 47
0.01
 48
0.01
140
0.15625
141
0.09
142
0.0
143
25.3999999999999986
144
1.0
145
0.0
146
1.0
147
0.09
 71
     1
 72
     0
 73
     1
 74
     1
 75
     0
 76
     0
 77
     0
 78
     4
170
     0
171
     2
172
     0
173
     0
174
     0
175
     0
176
     0
177
     0
178
     0
  0
ENDTAB
  0
ENDSEC
  0
SECTION
  2
BLOCKS
  0
BLOCK
  8
0
  2
$MODEL_SPACE
 70
     0
 10
0.0
 20
0.0
 30
0.0
  3
$MODEL_SPACE
  1

  0
ENDBLK
  5
21
  8
0
  0
BLOCK
 67
     1
  8
0
  2
$PAPER_SPACE
 70
     0
 10
0.0
 20
0.0
 30
0.0
  3
$PAPER_SPACE
  1

  0
ENDBLK
  5
1D
 67
     1
  8
0
  0
BLOCK
  8
0
  2
_FILLED
 70
     0
 10
0.0
 20
0.0
 30
0.0
  3
_FILLED
  1

  0
SOLID
  5
940C
  8
0
  6
BYBLOCK
 62
     0
 10
0.0
 20
0.0
 30
0.0
 11
-1.0
 21
0.1666666667
 31
0.0
 12
-1.0
 22
-0.1666666667
 32
0.0
 13
-1.0
 23
-0.1666666667
 33
0.0
  0
ENDBLK
  5
940D
  8
0
  6
BYBLOCK
 62
     0
  0
BLOCK
  8
0
  2
_CLOSED
 70
     0
 10
0.0
 20
0.0
 30
0.0
  3
_CLOSED
  1

  0
LINE
  5
9E31
  8
0
  6
BYBLOCK
 62
     0
 10
0.0
 20
0.0
 30
0.0
 11
-1.0
 21
0.1666666667
 31
0.0
  0
LINE
  5
9E32
  8
0
  6
BYBLOCK
 62
     0
 10
-1.0
 20
0.1666666667
 30
0.0
 11
-1.0
 21
-0.1666666667
 31
0.0
  0
LINE
  5
9E33
  8
0
  6
BYBLOCK
 62
     0
 10
-1.0
 20
-0.1666666667
 30
0.0
 11
0.0
 21
0.0
 31
0.0
  0
LINE
  5
9E34
  8
0
  6
BYBLOCK
 62
     0
 10
-1.0
 20
0.0
 30
0.0
 11
0.0
 21
0.0
 31
0.0
  0
ENDBLK
  5
9E35
  8
0
  6
BYBLOCK
 62
     0
  0
ENDSEC
  0
SECTION
  2
ENTITIES
  0
ATTDEF
  5
3930
  8
DEFPOINTS
 10
3441.8544138842289613
 20
206.5525584505288919
 30
0.0
 40
0.001
  1
P34242-LV
  3

  2
MODELNUMBER
 70
     0
1001
ACDBATTR
1070
     0
1070
     1
  0
ATTDEF
  5
3931
  8
DEFPOINTS
 10
3441.8544138842289613
 20
206.5508917838621983
 30
0.0
 40
0.001
  1
GUISE
  3

  2
TRADENAME
 70
     0
1001
ACDBATTR
1070
     0
1070
     1
  0
ATTDEF
  5
3932
  8
DEFPOINTS
 10
3441.8544138842289613
 20
206.54922511719559
 30
0.0
 40
0.001
  1
VALVE TRIM
  3

  2
PRODUCT
 70
     0
1001
ACDBATTR
1070
     0
1070
     1
  0
LINE
  5
BBB8
  8
0
 10
3441.8538444511268608
 20
209.2506914001606901
 30
0.0
 11
3441.8538444511268608
 21
203.8506914001607981
 31
0.0
  0
LINE
  5
BBB9
  8
0
 10
3441.2538444511269518
 20
209.2009104706606877
 30
0.0
 11
3441.2538444511269518
 21
203.9004723296606869
 31
0.0
  0
LINE
  5
BBBA
  8
0
 10
3441.2931463548679858
 20
209.2409043784670075
 30
0.0
 11
3441.8538444511268608
 21
209.2506914001606901
 31
0.0
  0
ARC
  5
BBBB
  8
0
 10
3441.2938444511269154
 20
209.2009104706606877
 30
0.0
 40
0.04
 50
91.0000000018780355
 51
179.9999999999967031
  0
LINE
  5
BBBC
  8
0
 10
3441.2238444511272064
 20
207.4505153262097963
 30
0.0
 11
3441.2238444511272064
 21
205.6508674740607887
 31
0.0
  0
LINE
  5
BBBD
  8
0
 10
3441.2136699270631652
 20
207.4605138031614047
 30
0.0
 11
3439.7093284798152126
 21
207.434255425560508
 31
0.0
  0
ARC
  5
BBBE
  8
0
 10
3439.7100161046269022
 20
207.3948614263713068
 30
0.0
 40
0.0394
 50
90.9999999986727488
 51
180.0
  0
ARC
  5
BBBF
  8
0
 10
3441.2138444511269881
 20
207.4505153262097963
 30
0.0
 40
0.01
 50
0.0000000000081422
 51
90.9999999986727488
  0
LINE
  5
BBC0
  8
0
 10
3439.6506161046268062
 20
207.1846714136333958
 30
0.0
 11
3439.6506161046268062
 21
205.9167113866608076
 31
0.0
  0
LINE
  5
BBC1
  8
0
 10
3439.0406946448269991
 20
205.931418440360801
 30
0.0
 11
3439.0406946448269991
 21
206.9493331138251051
 31
0.0
  0
LINE
  5
BBC2
  8
0
 10
3439.635877890725169
 20
207.1996691290607941
 30
0.0
 11
3439.1791171019758622
 21
207.207641918295792
 31
0.0
  0
ARC
  5
BBC3
  8
0
 10
3439.6356161046269335
 20
207.1846714136333958
 30
0.0
 40
0.015
 50
359.9999999999984084
 51
88.9999999986692103
  0
LINE
  5
BBC4
  8
0
 10
3439.6358778907228952
 20
205.9017136712334093
 30
0.0
 11
3439.0807822696378935
 21
205.8920244411609133
 31
0.0
  0
ARC
  5
BBC5
  8
0
 10
3439.6356161046269335
 20
205.9167113866608076
 30
0.0
 40
0.015
 50
270.9999999964056201
 51
359.9999999999935199
  0
ARC
  5
BBC6
  8
0
 10
3439.0800946448280229
 20
205.931418440350086
 30
0.0
 40
0.0394
 50
180.0
 51
270.9999999963795858
  0
LINE
  5
BBC7
  8
0
 10
3441.2136699270631652
 20
205.6408689971092087
 30
0.0
 11
3439.7093284798129389
 21
205.6671273747610087
 31
0.0
  0
ARC
  5
BBC8
  8
0
 10
3439.7100161046269022
 20
205.7065213739500962
 30
0.0
 40
0.0394
 50
180.0
 51
268.9999999993988808
  0
ARC
  5
BBC9
  8
0
 10
3441.2138444511269881
 20
205.6508674740607887
 30
0.0
 40
0.01
 50
268.9999999993988808
 51
0.0
  0
LINE
  5
BBCA
  8
0
 10
3438.9028993692268159
 20
206.129420390055401
 30
0.0
 11
3438.9028993692268159
 21
207.0562467568944101
 31
0.0
  0
LINE
  5
BBCB
  8
0
 10
3438.9826260821018877
 20
206.1086696189672125
 30
0.0
 11
3438.9222555568030657
 21
206.1097233904611983
 31
0.0
  0
ARC
  5
BBCC
  8
0
 10
3438.9815946448279647
 20
206.0495786201844055
 30
0.0
 40
0.0591
 50
0.0000000000016284
 51
88.999999947697674
  0
ARC
  5
BBCD
  8
0
 10
3438.9225993692271004
 20
206.129420390055401
 30
0.0
 40
0.0197
 50
180.0
 51
268.9999999476975745
  0
LINE
  5
BBCE
  8
0
 10
3438.8254746188531499
 20
207.1350347552728124
 30
0.0
 11
3437.6233377225989898
 21
207.1560181328312922
 31
0.0
  0
ARC
  5
BBCF
  8
0
 10
3438.8240993692270422
 20
207.0562467568944101
 30
0.0
 40
0.0788
 50
0.0
 51
89.0000000008581935
  0
LINE
  5
BBD0
  8
0
 10
3437.6233377225980803
 20
207.3959266898602891
 30
0.0
 11
3438.8179752574628765
 21
207.4167791655459894
 31
0.0
  0
LINE
  5
BBD1
  8
0
 10
3437.6036867707271085
 20
207.375929735957186
 30
0.0
 11
3437.6036867707271085
 21
207.1760150867343953
 31
0.0
  0
ARC
  5
BBD2
  8
0
 10
3437.6236867707270903
 20
207.375929735957186
 30
0.0
 40
0.02
 50
91.0000000012786785
 51
180.0000000000032117
  0
ARC
  5
BBD3
  8
0
 10
3437.6236867707270903
 20
207.1760150867343953
 30
0.0
 40
0.02
 50
179.9999999999984084
 51
269.0000000008581083
  0
LINE
  5
BBD4
  8
0
 10
3438.4698285030272018
 20
207.3903500935529109
 30
0.0
 11
3438.4698285030272018
 21
207.1615947291697069
 31
0.0
  0
ARC
  5
BBD5
  8
0
 10
3438.44982850302722
 20
207.3903500935529109
 30
0.0
 40
0.02
 50
0.0
 51
91.0000000012786785
  0
ARC
  5
BBD6
  8
0
 10
3438.44982850302722
 20
207.1615947291697069
 30
0.0
 40
0.02
 50
269.0000000008581083
 51
0.0
  0
ARC
  5
BBD7
  8
0
 10
3438.8240563220679178
 20
207.0618164277034055
 30
0.0
 40
0.3550148230756409
 50
28.8469488176379016
 51
90.9814699397578437
  0
ARC
  5
BBD8
  8
0
 10
3438.8308807391858863
 20
207.0655754681243081
 30
0.0
 40
0.3472236066184287
 50
352.3004475036261738
 51
28.8469488176379016
  0
LINE
  5
BBD9
  8
0
 10
3439.080438652479188
 20
207.0207142011344956
 30
0.0
 11
3439.1749738632438493
 21
207.019054989093803
 31
0.0
  0
ARC
  5
BBDA
  8
0
 10
3439.1363424038718222
 20
206.9428327591789127
 30
0.0
 40
0.0958683911457246
 50
125.6710047618652055
 51
176.1120776149379026
  0
ARC
  5
BBDB
  8
0
 10
3439.1839574352438831
 20
207.2668915186673075
 30
0.0
 40
0.0594469845352389
 50
214.3826812461252018
 51
265.3296534370819018
  0
LINE
  5
BBDC
  8
0
 10
3439.6506161046268062
 20
206.9256914001607015
 30
0.0
 11
3439.670616104626788
 21
206.9256914001607015
 31
0.0
  0
LINE
  5
BBDD
  8
0
 10
3439.6506161046268062
 20
206.1756914001607868
 30
0.0
 11
3439.670616104626788
 21
206.1756914001607868
 31
0.0
  0
LINE
  5
BBDE
  8
0
 10
3441.2238444511272064
 20
207.3501677482607874
 30
0.0
 11
3441.2440189751778234
 21
207.3505198958615949
 31
0.0
  0
ARC
  5
BBDF
  8
0
 10
3441.2438441625517953
 20
207.3605349052203906
 30
0.0
 40
0.0100165349253263
 50
270.9999999252904104
 51
356.7362604187969737
  0
LINE
  5
BBE0
  8
0
 10
3441.2238444511272064
 20
205.7512150521608021
 30
0.0
 11
3441.2440189751268917
 21
205.7508629045134114
 31
0.0
  0
ARC
  5
BBE1
  8
0
 10
3441.2438444185891058
 20
205.7408625677180964
 30
0.0
 40
0.0100018601272326
 50
1.0953252375096729
 51
88.9999999404011248
  0
LINE
  5
BBE2
  8
0
 10
3441.8538444511268608
 20
203.8506914001607981
 30
0.0
 11
3441.2931463548679858
 21
203.8604784218545092
 31
0.0
  0
ARC
  5
BBE3
  8
0
 10
3441.2938444511269154
 20
203.9004723296606869
 30
0.0
 40
0.04
 50
180.0
 51
268.9999999981218934
  0
LINE
  5
BBE5
  8
0
 10
3439.670616104626788
 20
207.3948614263713068
 30
0.0
 11
3439.670616104626788
 21
205.7065213739500962
 31
0.0
  0
ENDSEC
  0
EOF
