  0
SECTION
  2
HEADER
  9
$ACADVER
  1
AC1009
  9
$INSBASE
 10
3429.6220858355909513
 20
207.4966132645610912
 30
0.0
  9
$EXTMIN
 10
3427.7520058355908077
 20
205.6265332645610897
 30
0.0
  9
$EXTMAX
 10
3431.8037577702912131
 20
209.3666932645610927
 30
0.0
  9
$LIMMIN
 10
0.0
 20
0.0
  9
$LIMMAX
 10
11.6929133858000007
 20
8.2677165353999982
  9
$ORTHOMODE
 70
     0
  9
$REGENMODE
 70
     1
  9
$FILLMODE
 70
     1
  9
$QTEXTMODE
 70
     0
  9
$MIRRTEXT
 70
     0
  9
$DRAGMODE
 70
     2
  9
$LTSCALE
 40
0.6431102362
  9
$OSMODE
 70
  4095
  9
$ATTMODE
 70
     1
  9
$TEXTSIZE
 40
0.2
  9
$TRACEWID
 40
0.05
  9
$TEXTSTYLE
  7
STANDARD
  9
$CLAYER
  8
0
  9
$CELTYPE
  6
BYLAYER
  9
$CECOLOR
 62
   256
  9
$DIMSCALE
 40
1.0
  9
$DIMASZ
 40
0.1875
  9
$DIMEXO
 40
0.0625
  9
$DIMDLI
 40
0.4443307087
  9
$DIMRND
 40
0.0
  9
$DIMDLE
 40
0.0
  9
$DIMEXE
 40
0.125
  9
$DIMTP
 40
0.01
  9
$DIMTM
 40
0.01
  9
$DIMTXT
 40
2.0
  9
$DIMCEN
 40
0.1052362205
  9
$DIMTSZ
 40
0.0
  9
$DIMTOL
 70
     1
  9
$DIMLIM
 70
     0
  9
$DIMTIH
 70
     1
  9
$DIMTOH
 70
     1
  9
$DIMSE1
 70
     0
  9
$DIMSE2
 70
     0
  9
$DIMTAD
 70
     0
  9
$DIMZIN
 70
     0
  9
$DIMBLK
  1

  9
$DIMASO
 70
     1
  9
$DIMSHO
 70
     1
  9
$DIMPOST
  1
\X
  9
$DIMAPOST
  1

  9
$DIMALT
 70
     1
  9
$DIMALTD
 70
     2
  9
$DIMALTF
 40
25.3999999999999986
  9
$DIMLFAC
 40
1.0
  9
$DIMTOFL
 70
     0
  9
$DIMTVP
 40
0.0
  9
$DIMTIX
 70
     0
  9
$DIMSOXD
 70
     0
  9
$DIMSAH
 70
     0
  9
$DIMBLK1
  1

  9
$DIMBLK2
  1

  9
$DIMSTYLE
  2
STANDARD
  9
$DIMCLRD
 70
     0
  9
$DIMCLRE
 70
     0
  9
$DIMCLRT
 70
     0
  9
$DIMTFAC
 40
1.0
  9
$DIMGAP
 40
0.09
  9
$LUNITS
 70
     2
  9
$LUPREC
 70
     4
  9
$SKETCHINC
 40
0.1
  9
$FILLETRAD
 40
0.0
  9
$AUNITS
 70
     0
  9
$AUPREC
 70
     0
  9
$MENU
  1
.
  9
$ELEVATION
 40
0.0
  9
$PELEVATION
 40
0.0
  9
$THICKNESS
 40
0.0
  9
$LIMCHECK
 70
     0
  9
$BLIPMODE
 70
     0
  9
$CHAMFERA
 40
0.0
  9
$CHAMFERB
 40
0.0
  9
$SKPOLY
 70
     0
  9
$TDCREATE
 40
2458060.468368056230247
  9
$TDUPDATE
 40
2460299.8124305550009012
  9
$TDINDWG
 40
0.3753890046
  9
$TDUSRTIMER
 40
0.3753890046
  9
$USRTIMER
 70
     1
  9
$ANGBASE
 50
0.0
  9
$ANGDIR
 70
     0
  9
$PDMODE
 70
     0
  9
$PDSIZE
 40
0.3125
  9
$PLINEWID
 40
0.0
  9
$COORDS
 70
     1
  9
$SPLFRAME
 70
     0
  9
$SPLINETYPE
 70
     6
  9
$SPLINESEGS
 70
     8
  9
$ATTDIA
 70
     1
  9
$ATTREQ
 70
     1
  9
$HANDLING
 70
     1
  9
$HANDSEED
  5
BC51
  9
$SURFTAB1
 70
     6
  9
$SURFTAB2
 70
     6
  9
$SURFTYPE
 70
     6
  9
$SURFU
 70
     6
  9
$SURFV
 70
     6
  9
$UCSNAME
  2

  9
$UCSORG
 10
0.0
 20
0.0
 30
0.0
  9
$UCSXDIR
 10
1.0
 20
0.0
 30
0.0
  9
$UCSYDIR
 10
0.0
 20
1.0
 30
0.0
  9
$PUCSNAME
  2

  9
$PUCSORG
 10
0.0
 20
0.0
 30
0.0
  9
$PUCSXDIR
 10
1.0
 20
0.0
 30
0.0
  9
$PUCSYDIR
 10
0.0
 20
1.0
 30
0.0
  9
$USERI1
 70
     0
  9
$USERI2
 70
     0
  9
$USERI3
 70
     0
  9
$USERI4
 70
     0
  9
$USERI5
 70
     0
  9
$USERR1
 40
0.0
  9
$USERR2
 40
0.0
  9
$USERR3
 40
0.0
  9
$USERR4
 40
0.0
  9
$USERR5
 40
0.0
  9
$WORLDVIEW
 70
     1
  9
$SHADEDGE
 70
     3
  9
$SHADEDIF
 70
    70
  9
$TILEMODE
 70
     1
  9
$MAXACTVP
 70
    64
  9
$PLIMCHECK
 70
     0
  9
$PEXTMIN
 10
1.0000000000000000E+20
 20
1.0000000000000000E+20
 30
1.0000000000000000E+20
  9
$PEXTMAX
 10
-1.0000000000000000E+20
 20
-1.0000000000000000E+20
 30
-1.0000000000000000E+20
  9
$PLIMMIN
 10
0.0
 20
0.0
  9
$PLIMMAX
 10
12.0
 20
9.0
  9
$UNITMODE
 70
     0
  9
$VISRETAIN
 70
     1
  9
$PLINEGEN
 70
     0
  9
$PSLTSCALE
 70
     1
  0
ENDSEC
  0
SECTION
  2
TABLES
  0
TABLE
  2
VPORT
 70
     1
  0
VPORT
  2
*ACTIVE
 70
     0
 10
0.0
 20
0.0
 11
1.0
 21
1.0
 12
147.4677011388783114
 22
10.1698335447377808
 13
0.0
 23
0.0
 14
1.0
 24
1.0
 15
0.0
 25
0.0
 16
0.0
 26
0.0
 36
110.7576973449536979
 17
3282.3101806640620453
 27
197.3267797198232927
 37
0.0
 40
3.7696487779237589
 41
2.498684210526315
 42
50.0
 43
0.0
 44
0.0
 50
0.0
 51
0.0
 71
     0
 72
   100
 73
     1
 74
     1
 75
     0
 76
     0
 77
     0
 78
     0
  0
ENDTAB
  0
TABLE
  2
LTYPE
 70
     2
  0
LTYPE
  2
CONTINUOUS
 70
     0
  3
Solid line
 72
    65
 73
     0
 40
0.0
  0
LTYPE
  2
PHANTOM2
 70
     0
  3
___ _ _ ___ _ _ ___ _ _ ___ _ _
 72
    65
 73
     6
 40
1.25
 49
0.625
 49
-0.125
 49
0.125
 49
-0.125
 49
0.125
 49
-0.125
  0
ENDTAB
  0
TABLE
  2
LAYER
 70
     2
  0
LAYER
  2
0
 70
     0
 62
   255
  6
CONTINUOUS
  0
LAYER
  2
DEFPOINTS
 70
     0
 62
     7
  6
CONTINUOUS
  0
ENDTAB
  0
TABLE
  2
STYLE
 70
     1
  0
STYLE
  2
STANDARD
 70
     0
 40
0.0
 41
0.8
 50
0.0
 71
     0
 42
0.2
  3
txt
  4

  0
ENDTAB
  0
TABLE
  2
VIEW
 70
     0
  0
ENDTAB
  0
TABLE
  2
UCS
 70
     0
  0
ENDTAB
  0
TABLE
  2
APPID
 70
     9
  0
APPID
  2
ACAD
 70
     0
  0
APPID
  2
ACAD_MLEADERVER
 70
     0
  0
APPID
  2
ACAD_EXEMPT_FROM_CAD_STANDARDS
 70
     0
  0
APPID
  2
ACAD_NAV_VCDISPLAY
 70
     0
  0
APPID
  2
ACAECLAYERSTANDARD
 70
     0
  0
APPID
  2
ACCMTRANSPARENCY
 70
     0
  0
APPID
  2
ACAD_DSTYLE_DIMJAG
 70
     0
  0
APPID
  2
ACAD_DSTYLE_DIMTALN
 70
     0
  0
APPID
  2
ACDBATTR
 70
     0
  0
ENDTAB
  0
TABLE
  2
DIMSTYLE
 70
     1
  0
DIMSTYLE
  2
STANDARD
 70
     0
  3

  4

  5

  6

  7

 40
1.0
 41
0.1875
 42
0.0625
 43
0.38
 44
0.125
 45
0.0
 46
0.0
 47
0.01
 48
0.01
140
0.15625
141
0.09
142
0.0
143
25.3999999999999986
144
1.0
145
0.0
146
1.0
147
0.09
 71
     1
 72
     0
 73
     1
 74
     1
 75
     0
 76
     0
 77
     0
 78
     4
170
     0
171
     2
172
     0
173
     0
174
     0
175
     0
176
     0
177
     0
178
     0
  0
ENDTAB
  0
ENDSEC
  0
SECTION
  2
BLOCKS
  0
BLOCK
  8
0
  2
$MODEL_SPACE
 70
     0
 10
0.0
 20
0.0
 30
0.0
  3
$MODEL_SPACE
  1

  0
ENDBLK
  5
21
  8
0
  0
BLOCK
 67
     1
  8
0
  2
$PAPER_SPACE
 70
     0
 10
0.0
 20
0.0
 30
0.0
  3
$PAPER_SPACE
  1

  0
ENDBLK
  5
1D
 67
     1
  8
0
  0
BLOCK
  8
0
  2
_FILLED
 70
     0
 10
0.0
 20
0.0
 30
0.0
  3
_FILLED
  1

  0
SOLID
  5
940C
  8
0
  6
BYBLOCK
 62
     0
 10
0.0
 20
0.0
 30
0.0
 11
-1.0
 21
0.1666666667
 31
0.0
 12
-1.0
 22
-0.1666666667
 32
0.0
 13
-1.0
 23
-0.1666666667
 33
0.0
  0
ENDBLK
  5
940D
  8
0
  6
BYBLOCK
 62
     0
  0
BLOCK
  8
0
  2
_CLOSED
 70
     0
 10
0.0
 20
0.0
 30
0.0
  3
_CLOSED
  1

  0
LINE
  5
9E31
  8
0
  6
BYBLOCK
 62
     0
 10
0.0
 20
0.0
 30
0.0
 11
-1.0
 21
0.1666666667
 31
0.0
  0
LINE
  5
9E32
  8
0
  6
BYBLOCK
 62
     0
 10
-1.0
 20
0.1666666667
 30
0.0
 11
-1.0
 21
-0.1666666667
 31
0.0
  0
LINE
  5
9E33
  8
0
  6
BYBLOCK
 62
     0
 10
-1.0
 20
-0.1666666667
 30
0.0
 11
0.0
 21
0.0
 31
0.0
  0
LINE
  5
9E34
  8
0
  6
BYBLOCK
 62
     0
 10
-1.0
 20
0.0
 30
0.0
 11
0.0
 21
0.0
 31
0.0
  0
ENDBLK
  5
9E35
  8
0
  6
BYBLOCK
 62
     0
  0
ENDSEC
  0
SECTION
  2
ENTITIES
  0
ATTDEF
  5
3930
  8
DEFPOINTS
 10
3429.6188605226780055
 20
207.5004112816054942
 30
0.0
 40
0.001
  1
P34244-LV
  3

  2
MODELNUMBER
 70
     0
1001
ACDBATTR
1070
     0
1070
     1
  0
ATTDEF
  5
3931
  8
DEFPOINTS
 10
3429.6188605226780055
 20
207.4987446149388006
 30
0.0
 40
0.001
  1
GUISE
  3

  2
TRADENAME
 70
     0
1001
ACDBATTR
1070
     0
1070
     1
  0
ATTDEF
  5
3932
  8
DEFPOINTS
 10
3429.6188605226780055
 20
207.4970779482721071
 30
0.0
 40
0.001
  1
VALVE TRIM
  3

  2
PRODUCT
 70
     0
1001
ACDBATTR
1070
     0
1070
     1
  0
LINE
  5
BB17
  8
0
 10
3428.2520058355908077
 20
209.3666932645610927
 30
0.0
 11
3430.9921658355901855
 21
209.3666932645610927
 31
0.0
  0
LINE
  5
BB19
  8
0
 10
3428.2520058355908077
 20
205.6265332645610897
 30
0.0
 11
3430.9921658355901855
 21
205.6265332645610897
 31
0.0
  0
LINE
  5
BB1B
  8
0
 10
3427.7520058355908077
 20
208.8666932645610927
 30
0.0
 11
3427.7520058355908077
 21
206.1265332645610897
 31
0.0
  0
ARC
  5
BB1D
  8
0
 10
3428.2520058355908077
 20
208.8666932645610927
 30
0.0
 40
0.5
 50
90.0
 51
180.0
  0
ARC
  5
BB1E
  8
0
 10
3428.2520058355908077
 20
206.1265332645610897
 30
0.0
 40
0.5
 50
180.0
 51
270.0
  0
ARC
  5
BB21
  8
0
 10
3429.6220858355909513
 20
207.4966132645610912
 30
0.0
 40
0.9098239260490569
 50
119.2082179478662027
 51
40.5016527101716619
  0
ARC
  5
BB22
  8
0
 10
3429.6220858355909513
 20
207.4966132645610912
 30
0.0
 40
0.9098239260490569
 50
72.1731871376298812
 51
107.8268128623701045
  0
ARC
  5
BB23
  8
0
 10
3429.6220858355909513
 20
207.4966132645610912
 30
0.0
 40
0.8835640253997766
 50
120.164740142883204
 51
41.9723969125397929
  0
ARC
  5
BB24
  8
0
 10
3429.6220858355909513
 20
207.4966132645610912
 30
0.0
 40
0.8835640253997766
 50
78.6024626492815202
 51
101.3975373507184941
  0
ARC
  5
BB25
  8
0
 10
3429.6220858355909513
 20
207.4966132645610912
 30
0.0
 40
0.6586669589998058
 50
134.4703824339736968
 51
45.5296175660263032
  0
ARC
  5
BB26
  8
0
 10
3429.6220858355909513
 20
207.4966132645610912
 30
0.0
 40
0.4409680097000002
 50
180.0
 51
0.0
  0
LINE
  5
BB27
  8
0
 10
3430.0417617065500053
 20
208.3627531151794017
 30
0.0
 11
3429.1981055366418332
 21
208.3627531151794017
 31
0.0
  0
LINE
  5
BB28
  8
0
 10
3431.7837577702907765
 20
208.3562719579531972
 30
0.0
 11
3430.1187151361182259
 21
208.3562719579531972
 31
0.0
  0
LINE
  5
BB29
  8
0
 10
3431.7713890810910016
 20
208.3418485542607073
 30
0.0
 11
3429.2215609647910242
 21
208.3418485542607073
 31
0.0
  0
LINE
  5
BB2A
  8
0
 10
3431.7837577702907765
 20
208.0875165935700863
 30
0.0
 11
3429.1981055366418332
 21
208.0875165935700863
 31
0.0
  0
LINE
  5
BB2B
  8
0
 10
3431.7713890810910016
 20
208.1019399972315966
 30
0.0
 11
3429.2215609647910242
 21
208.1019399972315966
 31
0.0
  0
LINE
  5
BB2C
  8
0
 10
3431.7913890810909834
 20
208.321848554260697
 30
0.0
 11
3431.7913890810909834
 21
208.1219399972316069
 31
0.0
  0
LINE
  5
BB2D
  8
0
 10
3431.8037577702912131
 20
208.336271957953187
 30
0.0
 11
3431.8037577702912131
 21
208.1075165935700113
 31
0.0
  0
ARC
  5
BB2E
  8
0
 10
3431.7713890810910016
 20
208.321848554260697
 30
0.0
 40
0.02
 50
0.0
 51
90.0
  0
ARC
  5
BB2F
  8
0
 10
3431.7713890810910016
 20
208.1219399972316069
 30
0.0
 40
0.02
 50
270.0
 51
0.0
  0
ARC
  5
BB30
  8
0
 10
3431.7837577702907765
 20
208.1075165935700113
 30
0.0
 40
0.02
 50
270.0
 51
0.0000000000016284
  0
ARC
  5
BB31
  8
0
 10
3431.7837577702907765
 20
208.336271957953187
 30
0.0
 40
0.02
 50
359.9999999999984084
 51
90.0
  0
ARC
  5
BB32
  8
0
 10
3430.0413099491811408
 20
208.3425777696415082
 30
0.0
 40
0.0201804026792102
 50
49.3448249424391605
 51
88.717272726402939
  0
LINE
  5
BB33
  8
0
 10
3430.0413356606391062
 20
208.3627531151794017
 30
0.0
 11
3430.0369352357588468
 21
208.3583280620320011
 31
0.0
  0
LINE
  5
BB34
  8
0
 10
3430.0369352357588468
 20
208.3583280620320011
 30
0.0
 11
3430.1187151361182259
 21
208.3562719579531972
 31
0.0
  0
LINE
  5
BB35
  8
0
 10
3429.2015609647910424
 20
208.321848554260697
 30
0.0
 11
3429.2015609647910424
 21
208.1219399972316069
 31
0.0
  0
LINE
  5
BB36
  8
0
 10
3429.1781055366418514
 20
208.3427531151793914
 30
0.0
 11
3429.1811178257908068
 21
207.9858876019333991
 31
0.0
  0
ARC
  5
BB37
  8
0
 10
3429.2215609647910242
 20
208.321848554260697
 30
0.0
 40
0.02
 50
90.0
 51
180.0
  0
ARC
  5
BB38
  8
0
 10
3429.1981055366418332
 20
208.3427531151793914
 30
0.0
 40
0.02
 50
90.0
 51
180.0000000000032117
  0
ARC
  5
BB39
  8
0
 10
3429.2215609647910242
 20
208.1219399972316069
 30
0.0
 40
0.02
 50
180.0
 51
270.0
  0
ARC
  5
BB3A
  8
0
 10
3429.1981055366418332
 20
208.1075165935700113
 30
0.0
 40
0.02
 50
206.2351344896617888
 51
270.0
  0
LINE
  5
BB3B
  8
0
 10
3429.1811178258908512
 20
207.4966132645610912
 30
0.0
 11
3429.1811178258908512
 21
207.9858876020234959
 31
0.0
  0
LINE
  5
BB3C
  8
0
 10
3430.0630538452910514
 20
207.4966132645610912
 30
0.0
 11
3430.0630538452910514
 21
208.0875165935700863
 31
0.0
  0
ARC
  5
BB3D
  8
0
 10
3429.1070755247751549
 20
208.0175176416408931
 30
0.0
 40
0.0738884466506823
 50
316.4894810147090993
 51
357.2759575926767184
  0
ARC
  5
BB3E
  8
0
 10
3430.1370961464072025
 20
208.0175176416408931
 30
0.0
 40
0.0738884466506823
 50
182.72404240732331
 51
223.5105189852909007
  0
LINE
  5
BB3F
  8
0
 10
3431.4921658355910949
 20
208.8666932645610927
 30
0.0
 11
3431.4921658355910949
 21
208.3562719579531972
 31
0.0
  0
LINE
  5
BB40
  8
0
 10
3431.4921658355910949
 20
208.0875165935700863
 30
0.0
 11
3431.4921658355910949
 21
206.1265332645610897
 31
0.0
  0
ARC
  5
BB43
  8
0
 10
3430.9921658355901855
 20
208.8666932645610927
 30
0.0
 40
0.5
 50
0.0
 51
90.0
  0
ARC
  5
BB44
  8
0
 10
3430.9921658355901855
 20
206.1265332645610897
 30
0.0
 40
0.5
 50
270.0
 51
0.0
  0
ENDSEC
  0
EOF
