  0
SECTION
  2
HEADER
  9
$ACADVER
  1
AC1009
  9
$INSBASE
 10
4490.0108310923078534
 20
181.0672978729816123
 30
0.0
  9
$EXTMIN
 10
4485.0709199490902392
 20
177.5391988660983884
 30
-0.0000000000000058
  9
$EXTMAX
 10
4491.9248389069625773
 20
181.0757259983435858
 30
0.0000000000000104
  9
$LIMMIN
 10
0.0
 20
0.0
  9
$LIMMAX
 10
11.6929133858000007
 20
8.2677165353999982
  9
$ORTHOMODE
 70
     0
  9
$REGENMODE
 70
     1
  9
$FILLMODE
 70
     1
  9
$QTEXTMODE
 70
     0
  9
$MIRRTEXT
 70
     0
  9
$DRAGMODE
 70
     2
  9
$LTSCALE
 40
0.6431102362
  9
$OSMODE
 70
  3839
  9
$ATTMODE
 70
     1
  9
$TEXTSIZE
 40
0.2
  9
$TRACEWID
 40
0.05
  9
$TEXTSTYLE
  7
STANDARD
  9
$CLAYER
  8
0
  9
$CELTYPE
  6
BYLAYER
  9
$CECOLOR
 62
   256
  9
$DIMSCALE
 40
1.0
  9
$DIMASZ
 40
0.1875
  9
$DIMEXO
 40
0.0625
  9
$DIMDLI
 40
0.4443307087
  9
$DIMRND
 40
0.0
  9
$DIMDLE
 40
0.0
  9
$DIMEXE
 40
0.125
  9
$DIMTP
 40
0.01
  9
$DIMTM
 40
0.01
  9
$DIMTXT
 40
2.0
  9
$DIMCEN
 40
0.1052362205
  9
$DIMTSZ
 40
0.0
  9
$DIMTOL
 70
     1
  9
$DIMLIM
 70
     0
  9
$DIMTIH
 70
     1
  9
$DIMTOH
 70
     1
  9
$DIMSE1
 70
     0
  9
$DIMSE2
 70
     0
  9
$DIMTAD
 70
     0
  9
$DIMZIN
 70
     0
  9
$DIMBLK
  1

  9
$DIMASO
 70
     1
  9
$DIMSHO
 70
     1
  9
$DIMPOST
  1
\X
  9
$DIMAPOST
  1

  9
$DIMALT
 70
     1
  9
$DIMALTD
 70
     2
  9
$DIMALTF
 40
25.3999999999999986
  9
$DIMLFAC
 40
1.0
  9
$DIMTOFL
 70
     0
  9
$DIMTVP
 40
0.0
  9
$DIMTIX
 70
     0
  9
$DIMSOXD
 70
     0
  9
$DIMSAH
 70
     0
  9
$DIMBLK1
  1

  9
$DIMBLK2
  1

  9
$DIMSTYLE
  2
STANDARD
  9
$DIMCLRD
 70
     0
  9
$DIMCLRE
 70
     0
  9
$DIMCLRT
 70
     0
  9
$DIMTFAC
 40
1.0
  9
$DIMGAP
 40
0.09
  9
$LUNITS
 70
     2
  9
$LUPREC
 70
     4
  9
$SKETCHINC
 40
0.1
  9
$FILLETRAD
 40
0.0
  9
$AUNITS
 70
     0
  9
$AUPREC
 70
     0
  9
$MENU
  1
.
  9
$ELEVATION
 40
0.0
  9
$PELEVATION
 40
0.0
  9
$THICKNESS
 40
0.0
  9
$LIMCHECK
 70
     0
  9
$BLIPMODE
 70
     0
  9
$CHAMFERA
 40
0.0
  9
$CHAMFERB
 40
0.0
  9
$SKPOLY
 70
     0
  9
$TDCREATE
 40
2458060.468368056230247
  9
$TDUPDATE
 40
2460269.5727314818650484
  9
$TDINDWG
 40
0.5145209491
  9
$TDUSRTIMER
 40
0.5145209491
  9
$USRTIMER
 70
     1
  9
$ANGBASE
 50
0.0
  9
$ANGDIR
 70
     0
  9
$PDMODE
 70
     0
  9
$PDSIZE
 40
0.3125
  9
$PLINEWID
 40
0.0
  9
$COORDS
 70
     1
  9
$SPLFRAME
 70
     0
  9
$SPLINETYPE
 70
     6
  9
$SPLINESEGS
 70
     8
  9
$ATTDIA
 70
     1
  9
$ATTREQ
 70
     1
  9
$HANDLING
 70
     1
  9
$HANDSEED
  5
11FC0
  9
$SURFTAB1
 70
     6
  9
$SURFTAB2
 70
     6
  9
$SURFTYPE
 70
     6
  9
$SURFU
 70
     6
  9
$SURFV
 70
     6
  9
$UCSNAME
  2

  9
$UCSORG
 10
0.0
 20
0.0
 30
0.0
  9
$UCSXDIR
 10
1.0
 20
0.0
 30
0.0
  9
$UCSYDIR
 10
0.0
 20
1.0
 30
0.0
  9
$PUCSNAME
  2

  9
$PUCSORG
 10
0.0
 20
0.0
 30
0.0
  9
$PUCSXDIR
 10
1.0
 20
0.0
 30
0.0
  9
$PUCSYDIR
 10
0.0
 20
1.0
 30
0.0
  9
$USERI1
 70
     0
  9
$USERI2
 70
     0
  9
$USERI3
 70
     0
  9
$USERI4
 70
     0
  9
$USERI5
 70
     0
  9
$USERR1
 40
0.0
  9
$USERR2
 40
0.0
  9
$USERR3
 40
0.0
  9
$USERR4
 40
0.0
  9
$USERR5
 40
0.0
  9
$WORLDVIEW
 70
     1
  9
$SHADEDGE
 70
     3
  9
$SHADEDIF
 70
    70
  9
$TILEMODE
 70
     1
  9
$MAXACTVP
 70
    64
  9
$PLIMCHECK
 70
     0
  9
$PEXTMIN
 10
1.0000000000000000E+20
 20
1.0000000000000000E+20
 30
1.0000000000000000E+20
  9
$PEXTMAX
 10
-1.0000000000000000E+20
 20
-1.0000000000000000E+20
 30
-1.0000000000000000E+20
  9
$PLIMMIN
 10
0.0
 20
0.0
  9
$PLIMMAX
 10
12.0
 20
9.0
  9
$UNITMODE
 70
     0
  9
$VISRETAIN
 70
     1
  9
$PLINEGEN
 70
     0
  9
$PSLTSCALE
 70
     1
  0
ENDSEC
  0
SECTION
  2
TABLES
  0
TABLE
  2
VPORT
 70
     1
  0
VPORT
  2
*ACTIVE
 70
     0
 10
0.0
 20
0.0
 11
1.0
 21
1.0
 12
684.953812045214363
 22
53.3122002354711029
 13
0.0
 23
0.0
 14
1.0
 24
1.0
 15
0.0
 25
0.0
 16
0.0
 26
0.0
 36
17.1152628219792007
 17
3803.5440673828129547
 27
125.9952621967499056
 37
0.0
 40
3.5618483288960898
 41
2.2831541218637978
 42
50.0
 43
0.0
 44
0.0
 50
0.0
 51
0.0
 71
     0
 72
   100
 73
     1
 74
     1
 75
     0
 76
     0
 77
     0
 78
     2
  0
ENDTAB
  0
TABLE
  2
LTYPE
 70
     2
  0
LTYPE
  2
CONTINUOUS
 70
     0
  3
Solid line
 72
    65
 73
     0
 40
0.0
  0
LTYPE
  2
PHANTOM2
 70
     0
  3
___ _ _ ___ _ _ ___ _ _ ___ _ _
 72
    65
 73
     6
 40
1.25
 49
0.625
 49
-0.125
 49
0.125
 49
-0.125
 49
0.125
 49
-0.125
  0
ENDTAB
  0
TABLE
  2
LAYER
 70
     2
  0
LAYER
  2
0
 70
     0
 62
   255
  6
CONTINUOUS
  0
LAYER
  2
DEFPOINTS
 70
     0
 62
     7
  6
CONTINUOUS
  0
ENDTAB
  0
TABLE
  2
STYLE
 70
     1
  0
STYLE
  2
STANDARD
 70
     0
 40
0.0
 41
0.8
 50
0.0
 71
     0
 42
0.2
  3
txt
  4

  0
ENDTAB
  0
TABLE
  2
VIEW
 70
     0
  0
ENDTAB
  0
TABLE
  2
UCS
 70
     0
  0
ENDTAB
  0
TABLE
  2
APPID
 70
    10
  0
APPID
  2
ACAD
 70
     0
  0
APPID
  2
ACAD_MLEADERVER
 70
     0
  0
APPID
  2
ACAD_EXEMPT_FROM_CAD_STANDARDS
 70
     0
  0
APPID
  2
ACAD_NAV_VCDISPLAY
 70
     0
  0
APPID
  2
ACAECLAYERSTANDARD
 70
     0
  0
APPID
  2
ACCMTRANSPARENCY
 70
     0
  0
APPID
  2
ACAD_DSTYLE_DIMJAG
 70
     0
  0
APPID
  2
ACAD_DSTYLE_DIMTALN
 70
     0
  0
APPID
  2
ACDBATTR
 70
     0
  0
APPID
  2
ACLAYERTOOLS
 70
     0
  0
ENDTAB
  0
TABLE
  2
DIMSTYLE
 70
     1
  0
DIMSTYLE
  2
STANDARD
 70
     0
  3

  4

  5

  6

  7

 40
1.0
 41
0.1875
 42
0.0625
 43
0.38
 44
0.125
 45
0.0
 46
0.0
 47
0.01
 48
0.01
140
0.15625
141
0.09
142
0.0
143
25.3999999999999986
144
1.0
145
0.0
146
1.0
147
0.09
 71
     1
 72
     0
 73
     1
 74
     1
 75
     0
 76
     0
 77
     0
 78
     4
170
     0
171
     2
172
     0
173
     0
174
     0
175
     0
176
     0
177
     0
178
     0
  0
ENDTAB
  0
ENDSEC
  0
SECTION
  2
BLOCKS
  0
BLOCK
  8
0
  2
$MODEL_SPACE
 70
     0
 10
0.0
 20
0.0
 30
0.0
  3
$MODEL_SPACE
  1

  0
ENDBLK
  5
21
  8
0
  0
BLOCK
 67
     1
  8
0
  2
$PAPER_SPACE
 70
     0
 10
0.0
 20
0.0
 30
0.0
  3
$PAPER_SPACE
  1

  0
ENDBLK
  5
1D
 67
     1
  8
0
  0
BLOCK
  8
0
  2
_FILLED
 70
     0
 10
0.0
 20
0.0
 30
0.0
  3
_FILLED
  1

  0
SOLID
  5
FDC1
  8
0
  6
BYBLOCK
 62
     0
 10
0.0
 20
0.0
 30
0.0
 11
-1.0
 21
0.1666666667
 31
0.0
 12
-1.0
 22
-0.1666666667
 32
0.0
 13
-1.0
 23
-0.1666666667
 33
0.0
  0
ENDBLK
  5
FDC2
  8
0
  6
BYBLOCK
 62
     0
  0
ENDSEC
  0
SECTION
  2
ENTITIES
  0
LINE
  5
11BB8
  8
0
 10
4488.960831092308581
 20
181.0672978729816123
 30
0.0
 11
4491.0608310923080353
 21
181.0672978729816123
 31
0.0
  0
LINE
  5
11BB9
  8
0
 10
4491.0608310923080353
 20
181.0672978729816123
 30
0.0
 11
4491.0608310923080353
 21
180.9256255308816037
 31
0.0
  0
ARC
  5
11BBA
  8
0
 10
4491.1789413285086994
 20
180.9256255308816037
 30
0.0
 40
0.1181102362000033
 50
180.0
 51
252.4855498685948874
  0
ARC
  5
11BBB
  8
0
 10
4490.8981342418028362
 20
180.0358018099649087
 30
0.0
 40
0.8149700788049553
 50
0.0000000011741081
 51
72.48554986859493
  0
LINE
  5
11BBC
  8
0
 10
4491.7131043206081813
 20
180.0358018099815922
 30
0.0
 11
4491.713104320659113
 21
177.5858805501815993
 31
0.0
  0
ARC
  5
11BBD
  8
0
 10
4491.6731043205600145
 20
177.5858805501808035
 30
0.0
 40
0.040000000099182
 50
270.0000000701925273
 51
0.0000000011741081
  0
LINE
  5
11BBE
  8
0
 10
4491.6731043206091272
 20
177.5458805500815913
 30
0.0
 11
4485.1213533770078357
 21
177.5458805420541069
 31
0.0
  0
ARC
  5
11BBF
  8
0
 10
4485.1213533769596324
 20
177.5858805420050999
 30
0.0
 40
0.0399999999509895
 50
179.9999884312765062
 51
270.0000000701925273
  0
LINE
  5
11BC0
  8
0
 10
4485.081353377007872
 20
177.5858805500816118
 30
0.0
 11
4485.0813536233417835
 21
178.8058805500814969
 31
0.0
  0
ARC
  5
11BC1
  8
0
 10
4485.1213536314189696
 20
178.8058805420050987
 30
0.0
 40
0.0400000080773983
 50
90.0003644160115783
 51
179.9999884312765062
  0
LINE
  5
11BC2
  8
0
 10
4485.1213533770078357
 20
178.8458805500816027
 30
0.0
 11
4491.3981342417819178
 21
178.8459204720340949
 31
0.0
  0
ARC
  5
11BC3
  8
0
 10
4491.438134242801425
 20
177.5858805506861131
 30
0.0
 40
0.0400000008923254
 50
180.0000008657800947
 51
269.9999987218408251
  0
LINE
  5
11BC4
  8
0
 10
4491.3981342419083376
 20
177.5858805500816118
 30
0.0
 11
4491.3981342048882652
 21
180.0358018099815922
 31
0.0
  0
ARC
  5
11BC5
  8
0
 10
4490.8981341973321832
 20
180.035801802426306
 30
0.0
 40
0.5000000075553573
 50
0.0000008657801638
 51
89.9999948921574173
  0
LINE
  5
11BC6
  8
0
 10
4490.8981342419083376
 20
180.5358018099815922
 30
0.0
 11
4489.4012247923092218
 21
180.5358019434297034
 31
0.0
  0
ARC
  5
11BC7
  8
0
 10
4489.4012247958753505
 20
180.5758019461958952
 30
0.0
 40
0.0400000027662044
 50
180.0001962585072022
 51
269.9999948921574173
  0
LINE
  5
11BC8
  8
0
 10
4489.361224793108704
 20
180.5758018091815984
 30
0.0
 11
4489.361224696557656
 21
180.6039886080656913
 31
0.0
  0
ARC
  5
11BC9
  8
0
 10
4489.2916315956672406
 20
180.6039883696844868
 30
0.0
 40
0.069593100891909
 50
0.0001962585055731
 51
90.0438044084445863
  0
LINE
  5
11BCA
  8
0
 10
4488.960831092308581
 20
181.0672978729816123
 30
0.0
 11
4488.960831092308581
 21
180.713597085581597
 31
0.0
  0
ARC
  5
11BCB
  8
0
 10
4489.0008310923076351
 20
180.713597085581597
 30
0.0
 40
0.0400000000000009
 50
180.0
 51
270.0
  0
LINE
  5
11BCC
  8
0
 10
4489.0008310923076351
 20
180.6735970855816049
 30
0.0
 11
4490.719947629509079
 21
180.6735970855814912
 31
0.0
  0
ARC
  5
11BCD
  8
0
 10
4490.719947629509079
 20
180.8273924965500896
 30
0.0
 40
0.1537954109685025
 50
270.0
 51
288.3549859815673244
  0
ARC
  5
11BCE
  8
0
 10
4490.7474376202171698
 20
180.7445372567229072
 30
0.0
 40
0.0664988454234561
 50
288.3549859815673244
 51
318.9548434777476018
  0
ARC
  5
11BCF
  8
0
 10
4490.7797780285945919
 20
180.7141514877257009
 30
0.0
 40
0.0222186586387335
 50
323.2919254592703169
 51
358.5702017107698225
  0
LINE
  5
11BD0
  8
0
 10
4490.8019897694075553
 20
180.713597085581597
 30
0.0
 11
4490.8020125816092332
 21
180.7714018099815974
 31
0.0
  0
LINE
  5
11BD1
  8
0
 10
4490.8020125816092332
 20
180.7714018099815974
 30
0.0
 11
4490.8022072822241171
 21
180.7793951872538969
 31
0.0
  0
LINE
  5
11BD2
  8
0
 10
4490.8022072822241171
 20
180.7793951872538969
 30
0.0
 11
4490.8022061047076932
 21
180.8107718735815865
 31
0.0
  0
ARC
  5
11BD3
  8
0
 10
4491.000380280725949
 20
180.810779310737388
 30
0.0
 40
0.1981741761576357
 50
148.9051949193354005
 51
180.0021502177689001
  0
ARC
  5
11BD4
  8
0
 10
4490.9396667692608389
 20
180.8473965348080981
 30
0.0
 40
0.1272731777644318
 50
125.1741118568535995
 51
148.9051949193354005
  0
ARC
  5
11BD5
  8
0
 10
4490.9017811087305745
 20
180.9011544329285073
 30
0.0
 40
0.0615066598081572
 50
85.5953290762788868
 51
125.1741118568527042
  0
ARC
  5
11BD6
  8
0
 10
4490.8066796171478927
 20
180.20291117811189
 30
0.0
 40
0.766099868180211
 50
70.625143101529261
 51
82.5128897523758695
  0
ARC
  5
11BD7
  8
0
 10
4485.3561154715243902
 20
178.8053790049748955
 30
0.0
 40
0.0405020779066979
 50
0.7095229136758366
 51
89.7061122091268714
  0
LINE
  5
11BD8
  8
0
 10
4485.3966144439445998
 20
178.8058805500816106
 30
0.0
 11
4485.3966144439445998
 21
177.5858805500816118
 31
0.0
  0
ARC
  5
11BD9
  8
0
 10
4485.3561154636663559
 20
177.5863820952658898
 30
0.0
 40
0.0405020857640351
 50
270.2938988488047016
 51
359.2904771142635241
  0
ATTDEF
  5
11BDF
  8
DEFPOINTS
 10
4489.9997459422966131
 20
181.0655874155687002
 30
0.0
 40
0.001
  1
P34247-00
  3

  2
MODELNUMBER
 70
     0
1001
ACDBATTR
1070
     0
1070
     1
  0
ATTDEF
  5
11BE0
  8
DEFPOINTS
 10
4489.9997459422966131
 20
181.0639207489020066
 30
0.0
 40
0.001
  1
GUISE
  3

  2
TRADENAME
 70
     0
1001
ACDBATTR
1070
     0
1070
     1
  0
ATTDEF
  5
11BE1
  8
DEFPOINTS
 10
4489.9997459422966131
 20
181.0622540822353983
 30
0.0
 40
0.001
  1
TOWEL RING
  3

  2
PRODUCT
 70
     0
1001
ACDBATTR
1070
     0
1070
     1
  0
ENDSEC
  0
EOF
