  0
SECTION
  2
HEADER
  9
$ACADVER
  1
AC1009
  9
$INSBASE
 10
3385.9792539049030893
 20
175.0696076788887012
 30
0.0
  9
$EXTMIN
 10
3383.789283826252813
 20
172.0568596473887055
 30
0.0
  9
$EXTMAX
 10
3388.1692239835538203
 20
175.0748241702536916
 30
0.0
  9
$LIMMIN
 10
0.0
 20
0.0
  9
$LIMMAX
 10
11.6929133858000007
 20
8.2677165353999982
  9
$ORTHOMODE
 70
     0
  9
$REGENMODE
 70
     1
  9
$FILLMODE
 70
     1
  9
$QTEXTMODE
 70
     0
  9
$MIRRTEXT
 70
     0
  9
$DRAGMODE
 70
     2
  9
$LTSCALE
 40
0.6431102362
  9
$OSMODE
 70
  4095
  9
$ATTMODE
 70
     1
  9
$TEXTSIZE
 40
0.2
  9
$TRACEWID
 40
0.05
  9
$TEXTSTYLE
  7
STANDARD
  9
$CLAYER
  8
0
  9
$CELTYPE
  6
BYLAYER
  9
$CECOLOR
 62
   256
  9
$DIMSCALE
 40
1.0
  9
$DIMASZ
 40
0.1875
  9
$DIMEXO
 40
0.0625
  9
$DIMDLI
 40
0.4443307087
  9
$DIMRND
 40
0.0
  9
$DIMDLE
 40
0.0
  9
$DIMEXE
 40
0.125
  9
$DIMTP
 40
0.01
  9
$DIMTM
 40
0.01
  9
$DIMTXT
 40
2.0
  9
$DIMCEN
 40
0.1052362205
  9
$DIMTSZ
 40
0.0
  9
$DIMTOL
 70
     1
  9
$DIMLIM
 70
     0
  9
$DIMTIH
 70
     1
  9
$DIMTOH
 70
     1
  9
$DIMSE1
 70
     0
  9
$DIMSE2
 70
     0
  9
$DIMTAD
 70
     0
  9
$DIMZIN
 70
     0
  9
$DIMBLK
  1

  9
$DIMASO
 70
     1
  9
$DIMSHO
 70
     1
  9
$DIMPOST
  1
\X
  9
$DIMAPOST
  1

  9
$DIMALT
 70
     1
  9
$DIMALTD
 70
     2
  9
$DIMALTF
 40
25.3999999999999986
  9
$DIMLFAC
 40
1.0
  9
$DIMTOFL
 70
     0
  9
$DIMTVP
 40
0.0
  9
$DIMTIX
 70
     0
  9
$DIMSOXD
 70
     0
  9
$DIMSAH
 70
     0
  9
$DIMBLK1
  1

  9
$DIMBLK2
  1

  9
$DIMSTYLE
  2
STANDARD
  9
$DIMCLRD
 70
     0
  9
$DIMCLRE
 70
     0
  9
$DIMCLRT
 70
     0
  9
$DIMTFAC
 40
1.0
  9
$DIMGAP
 40
0.09
  9
$LUNITS
 70
     2
  9
$LUPREC
 70
     4
  9
$SKETCHINC
 40
0.1
  9
$FILLETRAD
 40
0.0
  9
$AUNITS
 70
     0
  9
$AUPREC
 70
     0
  9
$MENU
  1
.
  9
$ELEVATION
 40
0.0
  9
$PELEVATION
 40
0.0
  9
$THICKNESS
 40
0.0
  9
$LIMCHECK
 70
     0
  9
$BLIPMODE
 70
     0
  9
$CHAMFERA
 40
0.0
  9
$CHAMFERB
 40
0.0
  9
$SKPOLY
 70
     0
  9
$TDCREATE
 40
2458060.468368056230247
  9
$TDUPDATE
 40
2460253.4012268520891666
  9
$TDINDWG
 40
1.0042315972
  9
$TDUSRTIMER
 40
1.0042315972
  9
$USRTIMER
 70
     1
  9
$ANGBASE
 50
0.0
  9
$ANGDIR
 70
     0
  9
$PDMODE
 70
     0
  9
$PDSIZE
 40
0.3125
  9
$PLINEWID
 40
0.0
  9
$COORDS
 70
     1
  9
$SPLFRAME
 70
     0
  9
$SPLINETYPE
 70
     6
  9
$SPLINESEGS
 70
     8
  9
$ATTDIA
 70
     1
  9
$ATTREQ
 70
     1
  9
$HANDLING
 70
     1
  9
$HANDSEED
  5
2B7A1
  9
$SURFTAB1
 70
     6
  9
$SURFTAB2
 70
     6
  9
$SURFTYPE
 70
     6
  9
$SURFU
 70
     6
  9
$SURFV
 70
     6
  9
$UCSNAME
  2

  9
$UCSORG
 10
0.0
 20
0.0
 30
0.0
  9
$UCSXDIR
 10
1.0
 20
0.0
 30
0.0
  9
$UCSYDIR
 10
0.0
 20
1.0
 30
0.0
  9
$PUCSNAME
  2

  9
$PUCSORG
 10
0.0
 20
0.0
 30
0.0
  9
$PUCSXDIR
 10
1.0
 20
0.0
 30
0.0
  9
$PUCSYDIR
 10
0.0
 20
1.0
 30
0.0
  9
$USERI1
 70
     0
  9
$USERI2
 70
     0
  9
$USERI3
 70
     0
  9
$USERI4
 70
     0
  9
$USERI5
 70
     0
  9
$USERR1
 40
0.0
  9
$USERR2
 40
0.0
  9
$USERR3
 40
0.0
  9
$USERR4
 40
0.0
  9
$USERR5
 40
0.0
  9
$WORLDVIEW
 70
     1
  9
$SHADEDGE
 70
     3
  9
$SHADEDIF
 70
    70
  9
$TILEMODE
 70
     1
  9
$MAXACTVP
 70
    64
  9
$PLIMCHECK
 70
     0
  9
$PEXTMIN
 10
1.0000000000000000E+20
 20
1.0000000000000000E+20
 30
1.0000000000000000E+20
  9
$PEXTMAX
 10
-1.0000000000000000E+20
 20
-1.0000000000000000E+20
 30
-1.0000000000000000E+20
  9
$PLIMMIN
 10
0.0
 20
0.0
  9
$PLIMMAX
 10
12.0
 20
9.0
  9
$UNITMODE
 70
     0
  9
$VISRETAIN
 70
     1
  9
$PLINEGEN
 70
     0
  9
$PSLTSCALE
 70
     1
  0
ENDSEC
  0
SECTION
  2
TABLES
  0
TABLE
  2
VPORT
 70
     1
  0
VPORT
  2
*ACTIVE
 70
     0
 10
0.0
 20
0.0
 11
1.0
 21
1.0
 12
122.5902158189658024
 22
21.8441393331375906
 13
0.0
 23
0.0
 14
1.0
 24
1.0
 15
0.0
 25
0.0
 16
0.0
 26
0.0
 36
92.3385285193394054
 17
3263.3890380859379547
 27
151.7217025756835938
 37
0.0
 40
3.0385181972545601
 41
2.1579545454545448
 42
50.0
 43
0.0
 44
0.0
 50
0.0
 51
0.0
 71
     0
 72
   100
 73
     1
 74
     1
 75
     0
 76
     0
 77
     0
 78
     0
  0
ENDTAB
  0
TABLE
  2
LTYPE
 70
     2
  0
LTYPE
  2
CONTINUOUS
 70
     0
  3
Solid line
 72
    65
 73
     0
 40
0.0
  0
LTYPE
  2
PHANTOM2
 70
     0
  3
___ _ _ ___ _ _ ___ _ _ ___ _ _
 72
    65
 73
     6
 40
1.25
 49
0.625
 49
-0.125
 49
0.125
 49
-0.125
 49
0.125
 49
-0.125
  0
ENDTAB
  0
TABLE
  2
LAYER
 70
     2
  0
LAYER
  2
0
 70
     0
 62
   255
  6
CONTINUOUS
  0
LAYER
  2
DEFPOINTS
 70
     0
 62
     7
  6
CONTINUOUS
  0
ENDTAB
  0
TABLE
  2
STYLE
 70
     1
  0
STYLE
  2
STANDARD
 70
     0
 40
0.0
 41
0.8
 50
0.0
 71
     0
 42
0.2
  3
txt
  4

  0
ENDTAB
  0
TABLE
  2
VIEW
 70
     0
  0
ENDTAB
  0
TABLE
  2
UCS
 70
     0
  0
ENDTAB
  0
TABLE
  2
APPID
 70
    10
  0
APPID
  2
ACAD
 70
     0
  0
APPID
  2
ACAD_MLEADERVER
 70
     0
  0
APPID
  2
ACAD_EXEMPT_FROM_CAD_STANDARDS
 70
     0
  0
APPID
  2
ACAD_NAV_VCDISPLAY
 70
     0
  0
APPID
  2
ACAECLAYERSTANDARD
 70
     0
  0
APPID
  2
ACCMTRANSPARENCY
 70
     0
  0
APPID
  2
ACAD_DSTYLE_DIMJAG
 70
     0
  0
APPID
  2
ACAD_DSTYLE_DIMTALN
 70
     0
  0
APPID
  2
ACDBATTR
 70
     0
  0
APPID
  2
ACADANNOTATIVE
 70
     0
  0
ENDTAB
  0
TABLE
  2
DIMSTYLE
 70
     1
  0
DIMSTYLE
  2
STANDARD
 70
     0
  3

  4

  5

  6

  7

 40
1.0
 41
0.1875
 42
0.0625
 43
0.38
 44
0.125
 45
0.0
 46
0.0
 47
0.01
 48
0.01
140
0.15625
141
0.09
142
0.0
143
25.3999999999999986
144
1.0
145
0.0
146
1.0
147
0.09
 71
     1
 72
     0
 73
     1
 74
     1
 75
     0
 76
     0
 77
     0
 78
     4
170
     0
171
     2
172
     0
173
     0
174
     0
175
     0
176
     0
177
     0
178
     0
  0
ENDTAB
  0
ENDSEC
  0
SECTION
  2
BLOCKS
  0
BLOCK
  8
0
  2
$MODEL_SPACE
 70
     0
 10
0.0
 20
0.0
 30
0.0
  3
$MODEL_SPACE
  1

  0
ENDBLK
  5
21
  8
0
  0
BLOCK
 67
     1
  8
0
  2
$PAPER_SPACE
 70
     0
 10
0.0
 20
0.0
 30
0.0
  3
$PAPER_SPACE
  1

  0
ENDBLK
  5
1D
 67
     1
  8
0
  0
ENDSEC
  0
SECTION
  2
ENTITIES
  0
ATTDEF
  5
2143C
  8
DEFPOINTS
 10
3385.9757531418649705
 20
175.0738241702536016
 30
0.0
 40
0.001
  1
P34248-00
  3

  2
MODELNUMBER
 70
     0
1001
ACDBATTR
1070
     0
1070
     1
  0
ATTDEF
  5
2143D
  8
DEFPOINTS
 10
3385.9757531418649705
 20
175.072157503586908
 30
0.0
 40
0.001
  1
GUISE
  3

  2
TRADENAME
 70
     0
1001
ACDBATTR
1070
     0
1070
     1
  0
ATTDEF
  5
2143E
  8
DEFPOINTS
 10
3385.9757531418649705
 20
175.070490836920186
 30
0.0
 40
0.001
  1
ROBE HOOK
  3

  2
PRODUCT
 70
     0
1001
ACDBATTR
1070
     0
1070
     1
  0
LINE
  5
2B6FF
  8
0
 10
3383.789283826252813
 20
172.0968596473886976
 30
0.0
 11
3383.789283826252813
 21
173.3168596473886964
 31
0.0
  0
LINE
  5
2B700
  8
0
 10
3384.1042539049531115
 20
172.0968596473886976
 30
0.0
 11
3384.1042539049531115
 21
173.3168596473886964
 31
0.0
  0
LINE
  5
2B701
  8
0
 10
3384.9292539049538391
 20
175.0696076788887012
 30
0.0
 11
3387.0292539048541585
 21
175.0696076788887012
 31
0.0
  0
LINE
  5
2B702
  8
0
 10
3384.9692539049538027
 20
174.6759068914886939
 30
0.0
 11
3386.9892539048541948
 21
174.6759068914886939
 31
0.0
  0
LINE
  5
2B703
  8
0
 10
3386.5888602040549813
 20
174.5381116158887096
 30
0.0
 11
3385.3696476057539257
 21
174.5381116158887096
 31
0.0
  0
LINE
  5
2B704
  8
0
 10
3384.9292539049538391
 20
174.7159068914886859
 30
0.0
 11
3384.9292539049538391
 21
175.0696076788887012
 31
0.0
  0
ARC
  5
2B705
  8
0
 10
3384.9692539049538027
 20
174.7159068914886859
 30
0.0
 40
0.04
 50
179.9999999999967031
 51
270.0
  0
LINE
  5
2B706
  8
0
 10
3385.3296476057539621
 20
173.3718596473885896
 30
0.0
 11
3385.3296476057539621
 21
174.6070068914887088
 31
0.0
  0
ARC
  5
2B707
  8
0
 10
3385.3446476057538348
 20
173.3718596473885896
 30
0.0
 40
0.015
 50
180.0
 51
270.0
  0
ARC
  5
2B708
  8
0
 10
3385.3695983115230774
 20
174.5780623216585923
 30
0.0
 40
0.0399507361814188
 50
179.9293041299486049
 51
270.0706958700465066
  0
ARC
  5
2B709
  8
0
 10
3385.2607626876360882
 20
174.6070219733709905
 30
0.0
 40
0.0688849197686654
 50
359.9874554805784896
 51
90.0125445194215388
  0
LINE
  5
2B70A
  8
0
 10
3383.8292838262541409
 20
173.3568596473886885
 30
0.0
 11
3388.1292239835529472
 21
173.3568596473886885
 31
0.0
  0
LINE
  5
2B70B
  8
0
 10
3383.8292838262541409
 20
172.0568596473887055
 30
0.0
 11
3388.1292239835529472
 21
172.0568596473887055
 31
0.0
  0
ARC
  5
2B70C
  8
0
 10
3383.8292838262541409
 20
172.0968596473886976
 30
0.0
 40
0.04
 50
180.0
 51
270.0
  0
ARC
  5
2B70D
  8
0
 10
3384.0642539049531479
 20
172.0968596473886976
 30
0.0
 40
0.04
 50
270.0
 51
0.0
  0
ARC
  5
2B70E
  8
0
 10
3383.8292838262541409
 20
173.3168596473886964
 30
0.0
 40
0.04
 50
90.0
 51
180.0000000000015916
  0
ARC
  5
2B70F
  8
0
 10
3384.0642539049531479
 20
173.3168596473886964
 30
0.0
 40
0.04
 50
359.9999999999968168
 51
90.0
  0
LINE
  5
2B710
  8
0
 10
3388.1692239835538203
 20
172.0968596473886976
 30
0.0
 11
3388.1692239835538203
 21
173.3168596473886964
 31
0.0
  0
LINE
  5
2B711
  8
0
 10
3387.8542539048539766
 20
172.0968596473886976
 30
0.0
 11
3387.8542539048539766
 21
173.3168596473886964
 31
0.0
  0
LINE
  5
2B712
  8
0
 10
3387.0292539048541585
 20
174.7159068914886859
 30
0.0
 11
3387.0292539048541585
 21
175.0696076788887012
 31
0.0
  0
ARC
  5
2B713
  8
0
 10
3386.9892539048541948
 20
174.7159068914886859
 30
0.0
 40
0.04
 50
270.0
 51
0.0000000000032569
  0
LINE
  5
2B714
  8
0
 10
3386.6288602040540354
 20
173.3718596473885896
 30
0.0
 11
3386.6288602040540354
 21
174.6070068914887088
 31
0.0
  0
ARC
  5
2B715
  8
0
 10
3386.6138602040541628
 20
173.3718596473885896
 30
0.0
 40
0.015
 50
270.0
 51
0.0
  0
ARC
  5
2B716
  8
0
 10
3386.5889094982831011
 20
174.5780623216585923
 30
0.0
 40
0.0399507361814188
 50
269.9293041299534934
 51
0.0706958700513726
  0
ARC
  5
2B717
  8
0
 10
3386.6977451221709998
 20
174.6070219733709905
 30
0.0
 40
0.0688849197686654
 50
89.9874554805784754
 51
180.0125445194215104
  0
ARC
  5
2B718
  8
0
 10
3388.1292239835529472
 20
172.0968596473886976
 30
0.0
 40
0.04
 50
270.0
 51
0.0
  0
ARC
  5
2B719
  8
0
 10
3387.8942539048539402
 20
172.0968596473886976
 30
0.0
 40
0.04
 50
180.0
 51
270.0
  0
ARC
  5
2B71A
  8
0
 10
3388.1292239835529472
 20
173.3168596473886964
 30
0.0
 40
0.04
 50
359.9999999999984084
 51
90.0
  0
ARC
  5
2B71B
  8
0
 10
3387.8942539048539402
 20
173.3168596473886964
 30
0.0
 40
0.04
 50
90.0
 51
180.0000000000032117
  0
ENDSEC
  0
EOF
