  0
SECTION
  2
HEADER
  9
$ACADVER
  1
AC1009
  9
$INSBASE
 10
599.8694855611654475
 20
22.7888532769993297
 30
0.0
  9
$EXTMIN
 10
594.5493363635139303
 20
21.6625679483600315
 30
-0.0000000349181948
  9
$EXTMAX
 10
599.910799234129172
 20
23.9192089092283915
 30
0.0000000814935746
  9
$LIMMIN
 10
0.0
 20
0.0
  9
$LIMMAX
 10
11.6929133858000007
 20
8.2677165353999982
  9
$ORTHOMODE
 70
     1
  9
$REGENMODE
 70
     1
  9
$FILLMODE
 70
     1
  9
$QTEXTMODE
 70
     0
  9
$MIRRTEXT
 70
     0
  9
$DRAGMODE
 70
     2
  9
$LTSCALE
 40
0.6431102362
  9
$OSMODE
 70
     7
  9
$ATTMODE
 70
     1
  9
$TEXTSIZE
 40
0.2
  9
$TRACEWID
 40
0.05
  9
$TEXTSTYLE
  7
STANDARD
  9
$CLAYER
  8
0
  9
$CELTYPE
  6
BYLAYER
  9
$CECOLOR
 62
   256
  9
$DIMSCALE
 40
1.0
  9
$DIMASZ
 40
0.1875
  9
$DIMEXO
 40
0.0625
  9
$DIMDLI
 40
0.4443307087
  9
$DIMRND
 40
0.0
  9
$DIMDLE
 40
0.0
  9
$DIMEXE
 40
0.125
  9
$DIMTP
 40
0.01
  9
$DIMTM
 40
0.01
  9
$DIMTXT
 40
2.0
  9
$DIMCEN
 40
0.1052362205
  9
$DIMTSZ
 40
0.0
  9
$DIMTOL
 70
     1
  9
$DIMLIM
 70
     0
  9
$DIMTIH
 70
     1
  9
$DIMTOH
 70
     1
  9
$DIMSE1
 70
     0
  9
$DIMSE2
 70
     0
  9
$DIMTAD
 70
     0
  9
$DIMZIN
 70
     0
  9
$DIMBLK
  1

  9
$DIMASO
 70
     1
  9
$DIMSHO
 70
     1
  9
$DIMPOST
  1
\X
  9
$DIMAPOST
  1

  9
$DIMALT
 70
     1
  9
$DIMALTD
 70
     2
  9
$DIMALTF
 40
25.3999999999999986
  9
$DIMLFAC
 40
1.0
  9
$DIMTOFL
 70
     0
  9
$DIMTVP
 40
0.0
  9
$DIMTIX
 70
     0
  9
$DIMSOXD
 70
     0
  9
$DIMSAH
 70
     0
  9
$DIMBLK1
  1

  9
$DIMBLK2
  1

  9
$DIMSTYLE
  2
STANDARD
  9
$DIMCLRD
 70
     0
  9
$DIMCLRE
 70
     0
  9
$DIMCLRT
 70
     0
  9
$DIMTFAC
 40
1.0
  9
$DIMGAP
 40
0.09
  9
$LUNITS
 70
     2
  9
$LUPREC
 70
     4
  9
$SKETCHINC
 40
0.1
  9
$FILLETRAD
 40
0.0
  9
$AUNITS
 70
     0
  9
$AUPREC
 70
     0
  9
$MENU
  1
.
  9
$ELEVATION
 40
0.0
  9
$PELEVATION
 40
0.0
  9
$THICKNESS
 40
0.0
  9
$LIMCHECK
 70
     0
  9
$BLIPMODE
 70
     0
  9
$CHAMFERA
 40
0.0
  9
$CHAMFERB
 40
0.0
  9
$SKPOLY
 70
     0
  9
$TDCREATE
 40
2458106.4931018520146608
  9
$TDUPDATE
 40
2459723.500011574011296
  9
$TDINDWG
 40
0.2986791204
  9
$TDUSRTIMER
 40
0.2986791204
  9
$USRTIMER
 70
     1
  9
$ANGBASE
 50
0.0
  9
$ANGDIR
 70
     0
  9
$PDMODE
 70
     0
  9
$PDSIZE
 40
0.3125
  9
$PLINEWID
 40
0.0
  9
$COORDS
 70
     1
  9
$SPLFRAME
 70
     0
  9
$SPLINETYPE
 70
     6
  9
$SPLINESEGS
 70
     8
  9
$ATTDIA
 70
     1
  9
$ATTREQ
 70
     1
  9
$HANDLING
 70
     1
  9
$HANDSEED
  5
65C3
  9
$SURFTAB1
 70
     6
  9
$SURFTAB2
 70
     6
  9
$SURFTYPE
 70
     6
  9
$SURFU
 70
     6
  9
$SURFV
 70
     6
  9
$UCSNAME
  2

  9
$UCSORG
 10
0.0
 20
0.0
 30
0.0
  9
$UCSXDIR
 10
1.0
 20
0.0
 30
0.0
  9
$UCSYDIR
 10
0.0
 20
1.0
 30
0.0
  9
$PUCSNAME
  2

  9
$PUCSORG
 10
0.0
 20
0.0
 30
0.0
  9
$PUCSXDIR
 10
1.0
 20
0.0
 30
0.0
  9
$PUCSYDIR
 10
0.0
 20
1.0
 30
0.0
  9
$USERI1
 70
     0
  9
$USERI2
 70
     0
  9
$USERI3
 70
     0
  9
$USERI4
 70
     0
  9
$USERI5
 70
     0
  9
$USERR1
 40
0.0
  9
$USERR2
 40
0.0
  9
$USERR3
 40
0.0
  9
$USERR4
 40
0.0
  9
$USERR5
 40
0.0
  9
$WORLDVIEW
 70
     1
  9
$SHADEDGE
 70
     3
  9
$SHADEDIF
 70
    70
  9
$TILEMODE
 70
     1
  9
$MAXACTVP
 70
    64
  9
$PLIMCHECK
 70
     0
  9
$PEXTMIN
 10
1.0000000000000000E+20
 20
1.0000000000000000E+20
 30
1.0000000000000000E+20
  9
$PEXTMAX
 10
-1.0000000000000000E+20
 20
-1.0000000000000000E+20
 30
-1.0000000000000000E+20
  9
$PLIMMIN
 10
0.0
 20
0.0
  9
$PLIMMAX
 10
12.0
 20
9.0
  9
$UNITMODE
 70
     0
  9
$VISRETAIN
 70
     1
  9
$PLINEGEN
 70
     0
  9
$PSLTSCALE
 70
     1
  0
ENDSEC
  0
SECTION
  2
TABLES
  0
TABLE
  2
VPORT
 70
     1
  0
VPORT
  2
*ACTIVE
 70
     0
 10
0.0
 20
0.0
 11
1.0
 21
1.0
 12
323.6558662423083774
 22
40.3968491628156912
 13
0.0
 23
0.0
 14
1.0
 24
1.0
 15
0.0
 25
0.0
 16
-0.0000000000000568
 26
0.0
 36
193.9250709296327955
 17
273.5742015565131169
 27
-17.6059607340214797
 37
0.0
 40
2.3562586727129222
 41
2.2831541218637992
 42
50.0
 43
0.0
 44
0.0
 50
0.0
 51
0.0
 71
     0
 72
   100
 73
     1
 74
     1
 75
     0
 76
     0
 77
     0
 78
     0
  0
ENDTAB
  0
TABLE
  2
LTYPE
 70
     2
  0
LTYPE
  2
CONTINUOUS
 70
     0
  3
Solid line
 72
    65
 73
     0
 40
0.0
  0
LTYPE
  2
PHANTOM2
 70
     0
  3
___ _ _ ___ _ _ ___ _ _ ___ _ _
 72
    65
 73
     6
 40
1.25
 49
0.625
 49
-0.125
 49
0.125
 49
-0.125
 49
0.125
 49
-0.125
  0
ENDTAB
  0
TABLE
  2
LAYER
 70
     2
  0
LAYER
  2
0
 70
     0
 62
   255
  6
CONTINUOUS
  0
LAYER
  2
DEFPOINTS
 70
     0
 62
     7
  6
CONTINUOUS
  0
ENDTAB
  0
TABLE
  2
STYLE
 70
     1
  0
STYLE
  2
STANDARD
 70
     0
 40
0.0
 41
0.8
 50
0.0
 71
     0
 42
0.2
  3
txt
  4

  0
ENDTAB
  0
TABLE
  2
VIEW
 70
     0
  0
ENDTAB
  0
TABLE
  2
UCS
 70
     0
  0
ENDTAB
  0
TABLE
  2
APPID
 70
     9
  0
APPID
  2
ACAD
 70
     0
  0
APPID
  2
ACAD_MLEADERVER
 70
     0
  0
APPID
  2
ACAD_EXEMPT_FROM_CAD_STANDARDS
 70
     0
  0
APPID
  2
ACAD_NAV_VCDISPLAY
 70
     0
  0
APPID
  2
ACAD_DSTYLE_DIMJAG
 70
     0
  0
APPID
  2
ACAD_DSTYLE_DIMTALN
 70
     0
  0
APPID
  2
ACAECLAYERSTANDARD
 70
     0
  0
APPID
  2
ACCMTRANSPARENCY
 70
     0
  0
APPID
  2
ACDBATTR
 70
     0
  0
ENDTAB
  0
TABLE
  2
DIMSTYLE
 70
     1
  0
DIMSTYLE
  2
STANDARD
 70
     0
  3

  4

  5

  6

  7

 40
1.0
 41
0.1875
 42
0.0625
 43
0.38
 44
0.125
 45
0.0
 46
0.0
 47
0.01
 48
0.01
140
0.15625
141
0.09
142
0.0
143
25.3999999999999986
144
1.0
145
0.0
146
1.0
147
0.09
 71
     1
 72
     0
 73
     1
 74
     1
 75
     0
 76
     0
 77
     0
 78
     4
170
     0
171
     2
172
     0
173
     0
174
     0
175
     0
176
     0
177
     0
178
     0
  0
ENDTAB
  0
ENDSEC
  0
SECTION
  2
BLOCKS
  0
BLOCK
  8
0
  2
$MODEL_SPACE
 70
     0
 10
0.0
 20
0.0
 30
0.0
  3
$MODEL_SPACE
  1

  0
ENDBLK
  5
21
  8
0
  0
BLOCK
 67
     1
  8
0
  2
$PAPER_SPACE
 70
     0
 10
0.0
 20
0.0
 30
0.0
  3
$PAPER_SPACE
  1

  0
ENDBLK
  5
1D
 67
     1
  8
0
  0
BLOCK
  8
0
  2
_FILLED
 70
     0
 10
0.0
 20
0.0
 30
0.0
  3
_FILLED
  1

  0
SOLID
  5
64B6
  8
0
  6
BYBLOCK
 62
     0
 10
0.0
 20
0.0
 30
0.0
 11
-1.0
 21
0.1666666667
 31
0.0
 12
-1.0
 22
-0.1666666667
 32
0.0
 13
-1.0
 23
-0.1666666667
 33
0.0
  0
ENDBLK
  5
64B7
  8
0
  6
BYBLOCK
 62
     0
  0
ENDSEC
  0
SECTION
  2
ENTITIES
  0
ATTDEF
  5
FAA
  8
DEFPOINTS
 10
599.8697790129630221
 20
22.7924587444841116
 30
0.0
 40
0.001
  1
P34408-00
  3

  2
MODELNUMBER
 70
     0
1001
ACDBATTR
1070
     0
1070
     1
  0
ATTDEF
  5
FAB
  8
DEFPOINTS
 10
599.8697790129630221
 20
22.7907920778174393
 30
0.0
 40
0.001
  1
ONE
  3

  2
TRADENAME
 70
     0
1001
ACDBATTR
1070
     0
1070
     1
  0
ATTDEF
  5
FAC
  8
DEFPOINTS
 10
599.8697790129630221
 20
22.7891254111507813
 30
0.0
 40
0.001
  1
ROBE HOOK
  3

  2
PRODUCT
 70
     0
1001
ACDBATTR
1070
     0
1070
     1
  0
LINE
  5
64DE
  8
0
 10
599.8694855611654475
 20
23.9038532769993388
 30
0.0
 11
599.8694855611654475
 21
21.6738532769993313
 31
0.0
  0
LINE
  5
64DF
  8
0
 10
599.4694855611655839
 20
23.8988532769993398
 30
0.0
 11
599.4694855611655839
 21
21.6788532769993303
 31
0.0
  0
LINE
  5
64E0
  8
0
 10
594.8194855611656067
 20
23.8988532769993292
 30
0.0
 11
594.8194855611656067
 21
22.4388532769993283
 31
0.0
  0
LINE
  5
64E1
  8
0
 10
594.569485561165493
 20
23.8988532769993292
 30
0.0
 11
594.569485561165493
 21
22.4388532769993283
 31
0.0
  0
LINE
  5
64E2
  8
0
 10
594.7994855611656249
 20
23.9188532769993394
 30
0.0
 11
594.5894855611655885
 21
23.9188532769993394
 31
0.0
  0
ARC
  5
64E3
  8
0
 10
594.7994855611656249
 20
23.8988532769993292
 30
0.0
 40
0.0200000000000014
 50
0.0000000000050889
 51
90.0
  0
LINE
  5
64E4
  8
0
 10
594.8294855611654839
 20
23.1338532769993392
 30
0.0
 11
595.5794855611655976
 21
23.1338532769993392
 31
0.0
  0
LINE
  5
64E5
  8
0
 10
595.5994855611654657
 20
23.1338532769993392
 30
0.0
 11
599.459485561165593
 21
23.1338532769993392
 31
0.0
  0
ARC
  5
64E6
  8
0
 10
594.8294855611654839
 20
23.1238532769993483
 30
0.0
 40
0.0099999999999909
 50
89.9999999999609201
 51
180.0
  0
ARC
  5
64E7
  8
0
 10
599.459485561165593
 20
23.1238532769993412
 30
0.0
 40
0.0099999999999927
 50
0.0000000000203555
 51
90.0000000000130314
  0
LINE
  5
64E8
  8
0
 10
599.8594855611654566
 20
23.9138532769993297
 30
0.0
 11
599.4844855611654566
 21
23.9138532769993297
 31
0.0
  0
ARC
  5
64E9
  8
0
 10
599.8594855611654566
 20
23.9038532769993388
 30
0.0
 40
0.0099999999999971
 50
359.9999999999847091
 51
90.0000000000195257
  0
ARC
  5
64EA
  8
0
 10
599.4844855611654566
 20
23.8988532769993398
 30
0.0
 40
0.0149999999999988
 50
89.9999999999804601
 51
180.0000000000032117
  0
ARC
  5
64EB
  8
0
 10
594.5894855611655885
 20
23.8988532769993292
 30
0.0
 40
0.0200000000000014
 50
89.9999999999934914
 51
179.9999999999949125
  0
LINE
  5
64EC
  8
0
 10
594.7994855611656249
 20
22.4188532769993394
 30
0.0
 11
594.5894855611655885
 21
22.4188532769993394
 31
0.0
  0
ARC
  5
64ED
  8
0
 10
594.7994855611656249
 20
22.4388532769993283
 30
0.0
 40
0.0200000000000014
 50
270.0
 51
359.9999999999948841
  0
LINE
  5
64EE
  8
0
 10
594.8294855611654839
 20
22.4438532769993415
 30
0.0
 11
595.5794855611655976
 21
22.4438532769993415
 31
0.0
  0
LINE
  5
64EF
  8
0
 10
595.5994855611654657
 20
22.4438532769993415
 30
0.0
 11
599.459485561165593
 21
22.4438532769993415
 31
0.0
  0
ARC
  5
64F0
  8
0
 10
594.8294855611654839
 20
22.4538532769993289
 30
0.0
 40
0.0099999999999909
 50
180.0
 51
270.0000000000391083
  0
ARC
  5
64F1
  8
0
 10
599.459485561165593
 20
22.4538532769993289
 30
0.0
 40
0.0099999999999927
 50
269.9999999999869829
 51
359.9999999999797069
  0
LINE
  5
64F2
  8
0
 10
599.8594855611654566
 20
21.6638532769993297
 30
0.0
 11
599.8479716546637519
 21
21.6638532769993297
 31
0.0
  0
LINE
  5
64F3
  8
0
 10
599.6709979866673166
 20
21.6638532769993297
 30
0.0
 11
599.4844855611654566
 21
21.6638532769993297
 31
0.0
  0
ARC
  5
64F4
  8
0
 10
599.8594855611654566
 20
21.6738532769993313
 30
0.0
 40
0.0099999999999971
 50
269.999999999980389
 51
0.0000000000152667
  0
ARC
  5
64F5
  8
0
 10
599.4844855611654566
 20
21.6788532769993303
 30
0.0
 40
0.0149999999999988
 50
179.9999999999967031
 51
270.000000000019611
  0
ARC
  5
64F6
  8
0
 10
594.5894855611655885
 20
22.4388532769993283
 30
0.0
 40
0.0200000000000014
 50
180.0000000000048885
 51
270.0000000000064801
  0
ARC
  5
64F8
  8
0
 10
599.7594848206655342
 20
20.5422257033993283
 30
0.0
 40
1.125112587099999
 50
85.4891951760821911
 51
94.5108048239177947
  0
LINE
  5
64F9
  8
0
 10
595.5894855611654748
 20
23.1238532769993412
 30
0.0
 11
595.5894855611654748
 21
22.4538532769993289
 31
0.0
  0
ARC
  5
64FA
  8
0
 10
595.5794855611655976
 20
23.1238532769993412
 30
0.0
 40
0.0099999999999944
 50
0.0000000000101778
 51
90.0
  0
ARC
  5
64FB
  8
0
 10
595.5994855611654657
 20
23.1238532769993412
 30
0.0
 40
0.0099999999999902
 50
90.0
 51
180.0000000000100897
  0
ARC
  5
64FC
  8
0
 10
595.5794855611655976
 20
22.4538532769993289
 30
0.0
 40
0.0099999999999944
 50
270.0
 51
359.999999999989825
  0
ARC
  5
64FD
  8
0
 10
595.5994855611654657
 20
22.4538532769993289
 30
0.0
 40
0.0099999999999902
 50
179.9999999999897966
 51
270.0
  0
ENDSEC
  0
EOF
