  0
SECTION
  2
HEADER
  9
$ACADVER
  1
AC1009
  9
$INSBASE
 10
611.9597586470039232
 20
26.7242963826554991
 30
0.0
  9
$EXTMIN
 10
609.1878335162264193
 20
23.4742963826554991
 30
0.0
  9
$EXTMAX
 10
614.7316837777815408
 20
26.7289841626301801
 30
0.0
  9
$LIMMIN
 10
0.0
 20
0.0
  9
$LIMMAX
 10
11.6929133858000007
 20
8.2677165353999982
  9
$ORTHOMODE
 70
     1
  9
$REGENMODE
 70
     1
  9
$FILLMODE
 70
     1
  9
$QTEXTMODE
 70
     0
  9
$MIRRTEXT
 70
     0
  9
$DRAGMODE
 70
     2
  9
$LTSCALE
 40
0.6431102362
  9
$OSMODE
 70
    23
  9
$ATTMODE
 70
     1
  9
$TEXTSIZE
 40
0.2
  9
$TRACEWID
 40
0.05
  9
$TEXTSTYLE
  7
STANDARD
  9
$CLAYER
  8
0
  9
$CELTYPE
  6
BYLAYER
  9
$CECOLOR
 62
   256
  9
$DIMSCALE
 40
1.0
  9
$DIMASZ
 40
0.1875
  9
$DIMEXO
 40
0.0625
  9
$DIMDLI
 40
0.4443307087
  9
$DIMRND
 40
0.0
  9
$DIMDLE
 40
0.0
  9
$DIMEXE
 40
0.125
  9
$DIMTP
 40
0.01
  9
$DIMTM
 40
0.01
  9
$DIMTXT
 40
2.0
  9
$DIMCEN
 40
0.1052362205
  9
$DIMTSZ
 40
0.0
  9
$DIMTOL
 70
     1
  9
$DIMLIM
 70
     0
  9
$DIMTIH
 70
     1
  9
$DIMTOH
 70
     1
  9
$DIMSE1
 70
     0
  9
$DIMSE2
 70
     0
  9
$DIMTAD
 70
     0
  9
$DIMZIN
 70
     0
  9
$DIMBLK
  1

  9
$DIMASO
 70
     1
  9
$DIMSHO
 70
     1
  9
$DIMPOST
  1
\X
  9
$DIMAPOST
  1

  9
$DIMALT
 70
     1
  9
$DIMALTD
 70
     2
  9
$DIMALTF
 40
25.3999999999999986
  9
$DIMLFAC
 40
1.0
  9
$DIMTOFL
 70
     0
  9
$DIMTVP
 40
0.0
  9
$DIMTIX
 70
     0
  9
$DIMSOXD
 70
     0
  9
$DIMSAH
 70
     0
  9
$DIMBLK1
  1

  9
$DIMBLK2
  1

  9
$DIMSTYLE
  2
STANDARD
  9
$DIMCLRD
 70
     0
  9
$DIMCLRE
 70
     0
  9
$DIMCLRT
 70
     0
  9
$DIMTFAC
 40
1.0
  9
$DIMGAP
 40
0.09
  9
$LUNITS
 70
     2
  9
$LUPREC
 70
     4
  9
$SKETCHINC
 40
0.1
  9
$FILLETRAD
 40
0.0
  9
$AUNITS
 70
     0
  9
$AUPREC
 70
     0
  9
$MENU
  1
.
  9
$ELEVATION
 40
0.0
  9
$PELEVATION
 40
0.0
  9
$THICKNESS
 40
0.0
  9
$LIMCHECK
 70
     0
  9
$BLIPMODE
 70
     0
  9
$CHAMFERA
 40
0.0
  9
$CHAMFERB
 40
0.0
  9
$SKPOLY
 70
     0
  9
$TDCREATE
 40
2458106.4931018520146608
  9
$TDUPDATE
 40
2459724.5996990739367902
  9
$TDINDWG
 40
0.3011328241
  9
$TDUSRTIMER
 40
0.3011328241
  9
$USRTIMER
 70
     1
  9
$ANGBASE
 50
0.0
  9
$ANGDIR
 70
     0
  9
$PDMODE
 70
     0
  9
$PDSIZE
 40
0.3125
  9
$PLINEWID
 40
0.0
  9
$COORDS
 70
     1
  9
$SPLFRAME
 70
     0
  9
$SPLINETYPE
 70
     6
  9
$SPLINESEGS
 70
     8
  9
$ATTDIA
 70
     1
  9
$ATTREQ
 70
     1
  9
$HANDLING
 70
     1
  9
$HANDSEED
  5
660C
  9
$SURFTAB1
 70
     6
  9
$SURFTAB2
 70
     6
  9
$SURFTYPE
 70
     6
  9
$SURFU
 70
     6
  9
$SURFV
 70
     6
  9
$UCSNAME
  2

  9
$UCSORG
 10
0.0
 20
0.0
 30
0.0
  9
$UCSXDIR
 10
1.0
 20
0.0
 30
0.0
  9
$UCSYDIR
 10
0.0
 20
1.0
 30
0.0
  9
$PUCSNAME
  2

  9
$PUCSORG
 10
0.0
 20
0.0
 30
0.0
  9
$PUCSXDIR
 10
1.0
 20
0.0
 30
0.0
  9
$PUCSYDIR
 10
0.0
 20
1.0
 30
0.0
  9
$USERI1
 70
     0
  9
$USERI2
 70
     0
  9
$USERI3
 70
     0
  9
$USERI4
 70
     0
  9
$USERI5
 70
     0
  9
$USERR1
 40
0.0
  9
$USERR2
 40
0.0
  9
$USERR3
 40
0.0
  9
$USERR4
 40
0.0
  9
$USERR5
 40
0.0
  9
$WORLDVIEW
 70
     1
  9
$SHADEDGE
 70
     3
  9
$SHADEDIF
 70
    70
  9
$TILEMODE
 70
     1
  9
$MAXACTVP
 70
    64
  9
$PLIMCHECK
 70
     0
  9
$PEXTMIN
 10
1.0000000000000000E+20
 20
1.0000000000000000E+20
 30
1.0000000000000000E+20
  9
$PEXTMAX
 10
-1.0000000000000000E+20
 20
-1.0000000000000000E+20
 30
-1.0000000000000000E+20
  9
$PLIMMIN
 10
0.0
 20
0.0
  9
$PLIMMAX
 10
12.0
 20
9.0
  9
$UNITMODE
 70
     0
  9
$VISRETAIN
 70
     1
  9
$PLINEGEN
 70
     0
  9
$PSLTSCALE
 70
     1
  0
ENDSEC
  0
SECTION
  2
TABLES
  0
TABLE
  2
VPORT
 70
     1
  0
VPORT
  2
*ACTIVE
 70
     0
 10
0.0
 20
0.0
 11
1.0
 21
1.0
 12
338.3809020439908863
 22
42.7067133411075588
 13
0.0
 23
0.0
 14
1.0
 24
1.0
 15
0.0
 25
0.0
 16
-0.0000000000000568
 26
0.0
 36
193.9250709296327955
 17
273.5742015565131169
 27
-17.6059607340214797
 37
0.0
 40
3.2805011061201981
 41
2.2831541218637992
 42
50.0
 43
0.0
 44
0.0
 50
0.0
 51
0.0
 71
     0
 72
   100
 73
     1
 74
     1
 75
     0
 76
     0
 77
     0
 78
     0
  0
ENDTAB
  0
TABLE
  2
LTYPE
 70
     2
  0
LTYPE
  2
CONTINUOUS
 70
     0
  3
Solid line
 72
    65
 73
     0
 40
0.0
  0
LTYPE
  2
PHANTOM2
 70
     0
  3
___ _ _ ___ _ _ ___ _ _ ___ _ _
 72
    65
 73
     6
 40
1.25
 49
0.625
 49
-0.125
 49
0.125
 49
-0.125
 49
0.125
 49
-0.125
  0
ENDTAB
  0
TABLE
  2
LAYER
 70
     2
  0
LAYER
  2
0
 70
     0
 62
   255
  6
CONTINUOUS
  0
LAYER
  2
DEFPOINTS
 70
     0
 62
     7
  6
CONTINUOUS
  0
ENDTAB
  0
TABLE
  2
STYLE
 70
     1
  0
STYLE
  2
STANDARD
 70
     0
 40
0.0
 41
0.8
 50
0.0
 71
     0
 42
0.2
  3
txt
  4

  0
ENDTAB
  0
TABLE
  2
VIEW
 70
     0
  0
ENDTAB
  0
TABLE
  2
UCS
 70
     0
  0
ENDTAB
  0
TABLE
  2
APPID
 70
    10
  0
APPID
  2
ACAD
 70
     0
  0
APPID
  2
ACAD_MLEADERVER
 70
     0
  0
APPID
  2
ACAD_EXEMPT_FROM_CAD_STANDARDS
 70
     0
  0
APPID
  2
ACAD_NAV_VCDISPLAY
 70
     0
  0
APPID
  2
ACAD_DSTYLE_DIMJAG
 70
     0
  0
APPID
  2
ACAD_DSTYLE_DIMTALN
 70
     0
  0
APPID
  2
ACAECLAYERSTANDARD
 70
     0
  0
APPID
  2
ACCMTRANSPARENCY
 70
     0
  0
APPID
  2
ACDBATTR
 70
     0
  0
APPID
  2
DCO15
 70
     0
  0
ENDTAB
  0
TABLE
  2
DIMSTYLE
 70
     1
  0
DIMSTYLE
  2
STANDARD
 70
     0
  3

  4

  5

  6

  7

 40
1.0
 41
0.1875
 42
0.0625
 43
0.38
 44
0.125
 45
0.0
 46
0.0
 47
0.01
 48
0.01
140
0.15625
141
0.09
142
0.0
143
25.3999999999999986
144
1.0
145
0.0
146
1.0
147
0.09
 71
     1
 72
     0
 73
     1
 74
     1
 75
     0
 76
     0
 77
     0
 78
     4
170
     0
171
     2
172
     0
173
     0
174
     0
175
     0
176
     0
177
     0
178
     0
  0
ENDTAB
  0
ENDSEC
  0
SECTION
  2
BLOCKS
  0
BLOCK
  8
0
  2
$MODEL_SPACE
 70
     0
 10
0.0
 20
0.0
 30
0.0
  3
$MODEL_SPACE
  1

  0
ENDBLK
  5
21
  8
0
  0
BLOCK
 67
     1
  8
0
  2
$PAPER_SPACE
 70
     0
 10
0.0
 20
0.0
 30
0.0
  3
$PAPER_SPACE
  1

  0
ENDBLK
  5
1D
 67
     1
  8
0
  0
BLOCK
  8
0
  2
_FILLED
 70
     0
 10
0.0
 20
0.0
 30
0.0
  3
_FILLED
  1

  0
SOLID
  5
64BE
  8
0
  6
BYBLOCK
 62
     0
 10
0.0
 20
0.0
 30
0.0
 11
-1.0
 21
0.1666666667
 31
0.0
 12
-1.0
 22
-0.1666666667
 32
0.0
 13
-1.0
 23
-0.1666666667
 33
0.0
  0
ENDBLK
  5
64BF
  8
0
  6
BYBLOCK
 62
     0
  0
ENDSEC
  0
SECTION
  2
ENTITIES
  0
ATTDEF
  5
FAA
  8
DEFPOINTS
 10
611.9601832329346962
 20
26.7279841626301788
 30
0.0
 40
0.001
  1
P34410-00
  3

  2
MODELNUMBER
 70
     0
1001
ACDBATTR
1070
     0
1070
     1
  0
ATTDEF
  5
FAB
  8
DEFPOINTS
 10
611.9601832329346962
 20
26.7263174959635208
 30
0.0
 40
0.001
  1
ONE
  3

  2
TRADENAME
 70
     0
1001
ACDBATTR
1070
     0
1070
     1
  0
ATTDEF
  5
FAC
  8
DEFPOINTS
 10
611.9601832329346962
 20
26.7246508292968485
 30
0.0
 40
0.001
  1
TOWEL RING
  3

  2
PRODUCT
 70
     0
1001
ACDBATTR
1070
     0
1070
     1
  0
LINE
  5
64E3
  8
0
 10
610.8447586470039141
 20
26.7242963826554991
 30
0.0
 11
613.0747586470039323
 21
26.7242963826554991
 31
0.0
  0
LINE
  5
64E4
  8
0
 10
610.8497586470039096
 20
26.3242963826555005
 30
0.0
 11
613.0697586470039369
 21
26.3242963826555005
 31
0.0
  0
LINE
  5
64E5
  8
0
 10
610.8347586470038095
 20
26.7142963826555011
 30
0.0
 11
610.8347586470038095
 21
26.3392963826554904
 31
0.0
  0
ARC
  5
64E6
  8
0
 10
610.8447586470039141
 20
26.7142963826555011
 30
0.0
 40
0.009999999999998
 50
89.9999999999869686
 51
180.0000000000100897
  0
ARC
  5
64E7
  8
0
 10
610.8497586470039096
 20
26.3392963826554904
 30
0.0
 40
0.014999999999997
 50
179.9999999999863007
 51
270.0000000000130171
  0
LINE
  5
64E8
  8
0
 10
611.6147586470038959
 20
26.3092963826555
 30
0.0
 11
611.6147586470038959
 21
24.2372963826555008
 31
0.0
  0
ARC
  5
64E9
  8
0
 10
611.6297586470038823
 20
26.3092963826555
 30
0.0
 40
0.0150000000000024
 50
90.0
 51
180.0
  0
LINE
  5
64EA
  8
0
 10
609.2278335161879568
 20
24.2222963826555002
 30
0.0
 11
614.6916837778198897
 21
24.2222963826555002
 31
0.0
  0
ARC
  5
64EB
  8
0
 10
611.6297586470038823
 20
24.2372963826555008
 30
0.0
 40
0.0149999999999988
 50
180.0
 51
270.0
  0
ARC
  5
64EC
  8
0
 10
609.2278335161879568
 20
24.1822963826939095
 30
0.0
 40
0.0399999999615872
 50
89.9999999770715107
 51
180.5000000269469922
  0
LINE
  5
64ED
  8
0
 10
609.1878350393039909
 20
24.1819473212554996
 30
0.0
 11
609.1936645870039229
 21
23.5139473212555004
 31
0.0
  0
LINE
  5
64EE
  8
0
 10
609.2336630639475743
 20
23.4742963826554991
 30
0.0
 11
614.6858542300601584
 21
23.4742963826554991
 31
0.0
  0
ARC
  5
64EF
  8
0
 10
609.2336630639475743
 20
23.5142963826765587
 30
0.0
 40
0.0400000000210666
 50
180.5000000013523049
 51
269.9999999375132802
  0
ARC
  5
64F0
  8
0
 10
611.6657531651006821
 20
24.207743819792281
 30
0.0
 40
0.0150629772032024
 50
124.2683964072959952
 51
181.2041243366695937
  0
LINE
  5
64F1
  8
0
 10
611.6506935142039083
 20
24.2074272805554997
 30
0.0
 11
611.6415019805039037
 21
23.5146454441555015
 31
0.0
  0
ARC
  5
64F2
  8
0
 10
611.6828054314923975
 20
23.5140974475976492
 30
0.0
 40
0.041307086120805
 50
179.2398686529145095
 51
254.4808010783605994
  0
LINE
  5
64F3
  8
0
 10
613.0847586470039232
 20
26.7142963826555011
 30
0.0
 11
613.0847586470039232
 21
26.3392963826554904
 31
0.0
  0
ARC
  5
64F4
  8
0
 10
613.0747586470039323
 20
26.7142963826555011
 30
0.0
 40
0.009999999999998
 50
359.999999999989825
 51
90.0000000000130314
  0
ARC
  5
64F5
  8
0
 10
613.0697586470039369
 20
26.3392963826554904
 30
0.0
 40
0.014999999999997
 50
269.9999999999869829
 51
0.0000000000136382
  0
LINE
  5
64F6
  8
0
 10
612.3047586470039505
 20
26.3092963826555
 30
0.0
 11
612.3047586470039505
 21
24.2372963826555008
 31
0.0
  0
ARC
  5
64F7
  8
0
 10
612.2897586470038505
 20
26.3092963826555
 30
0.0
 40
0.0150000000000024
 50
0.0
 51
90.0
  0
ARC
  5
64F8
  8
0
 10
612.2897586470038505
 20
24.2372963826555008
 30
0.0
 40
0.0149999999999988
 50
270.0
 51
0.0
  0
ARC
  5
64F9
  8
0
 10
614.6916837778198897
 20
24.1822963826939095
 30
0.0
 40
0.0399999999615872
 50
359.4999999730528089
 51
90.0000000229285035
  0
LINE
  5
64FA
  8
0
 10
614.7316822547039692
 20
24.1819473212554996
 30
0.0
 11
614.7258527070039236
 21
23.5139473212555004
 31
0.0
  0
ARC
  5
64FB
  8
0
 10
614.6858542300601584
 20
23.5142963826765587
 30
0.0
 40
0.0400000000210666
 50
270.0000000624867198
 51
359.4999999986475245
  0
ARC
  5
64FC
  8
0
 10
612.2537641289070507
 20
24.207743819792281
 30
0.0
 40
0.0150629772032024
 50
358.795875663330321
 51
55.7316035927040332
  0
LINE
  5
64FD
  8
0
 10
612.2688237798039381
 20
24.2074272805554997
 30
0.0
 11
612.2780153135039427
 21
23.5146454441555015
 31
0.0
  0
ARC
  5
64FE
  8
0
 10
612.2367118625153353
 20
23.5140974475976492
 30
0.0
 40
0.041307086120805
 50
285.5191989216393722
 51
0.7601313470854631
  0
ENDSEC
  0
EOF
