  0
SECTION
  2
HEADER
  9
$ACADVER
  1
AC1009
  9
$INSBASE
 10
6563.184020947431236
 20
287.6328756043956787
 30
0.0
  9
$EXTMIN
 10
6561.9241784277819534
 20
287.6278662903258123
 30
0.0
  9
$EXTMAX
 10
6564.4438634670823376
 20
290.1210357373695956
 30
0.0
  9
$LIMMIN
 10
0.0
 20
0.0
  9
$LIMMAX
 10
11.6929133858000007
 20
8.2677165353999982
  9
$ORTHOMODE
 70
     0
  9
$REGENMODE
 70
     1
  9
$FILLMODE
 70
     1
  9
$QTEXTMODE
 70
     0
  9
$MIRRTEXT
 70
     0
  9
$DRAGMODE
 70
     2
  9
$LTSCALE
 40
0.6431102362
  9
$OSMODE
 70
  4095
  9
$ATTMODE
 70
     1
  9
$TEXTSIZE
 40
0.2
  9
$TRACEWID
 40
0.05
  9
$TEXTSTYLE
  7
STANDARD
  9
$CLAYER
  8
0
  9
$CELTYPE
  6
BYLAYER
  9
$CECOLOR
 62
   256
  9
$DIMSCALE
 40
1.0
  9
$DIMASZ
 40
0.1875
  9
$DIMEXO
 40
0.0625
  9
$DIMDLI
 40
0.4443307087
  9
$DIMRND
 40
0.0
  9
$DIMDLE
 40
0.0
  9
$DIMEXE
 40
0.125
  9
$DIMTP
 40
0.01
  9
$DIMTM
 40
0.01
  9
$DIMTXT
 40
2.0
  9
$DIMCEN
 40
0.1052362205
  9
$DIMTSZ
 40
0.0
  9
$DIMTOL
 70
     1
  9
$DIMLIM
 70
     0
  9
$DIMTIH
 70
     1
  9
$DIMTOH
 70
     1
  9
$DIMSE1
 70
     0
  9
$DIMSE2
 70
     0
  9
$DIMTAD
 70
     0
  9
$DIMZIN
 70
     0
  9
$DIMBLK
  1

  9
$DIMASO
 70
     1
  9
$DIMSHO
 70
     1
  9
$DIMPOST
  1
\X
  9
$DIMAPOST
  1

  9
$DIMALT
 70
     1
  9
$DIMALTD
 70
     2
  9
$DIMALTF
 40
25.3999999999999986
  9
$DIMLFAC
 40
1.0
  9
$DIMTOFL
 70
     0
  9
$DIMTVP
 40
0.0
  9
$DIMTIX
 70
     0
  9
$DIMSOXD
 70
     0
  9
$DIMSAH
 70
     0
  9
$DIMBLK1
  1

  9
$DIMBLK2
  1

  9
$DIMSTYLE
  2
STANDARD
  9
$DIMCLRD
 70
     0
  9
$DIMCLRE
 70
     0
  9
$DIMCLRT
 70
     0
  9
$DIMTFAC
 40
1.0
  9
$DIMGAP
 40
0.09
  9
$LUNITS
 70
     2
  9
$LUPREC
 70
     4
  9
$SKETCHINC
 40
0.1
  9
$FILLETRAD
 40
0.0
  9
$AUNITS
 70
     0
  9
$AUPREC
 70
     0
  9
$MENU
  1
.
  9
$ELEVATION
 40
0.0
  9
$PELEVATION
 40
0.0
  9
$THICKNESS
 40
0.0
  9
$LIMCHECK
 70
     0
  9
$BLIPMODE
 70
     0
  9
$CHAMFERA
 40
0.0
  9
$CHAMFERB
 40
0.0
  9
$SKPOLY
 70
     0
  9
$TDCREATE
 40
2458060.468368056230247
  9
$TDUPDATE
 40
2460679.6790972221642733
  9
$TDINDWG
 40
0.7997177083
  9
$TDUSRTIMER
 40
0.7997177083
  9
$USRTIMER
 70
     1
  9
$ANGBASE
 50
0.0
  9
$ANGDIR
 70
     0
  9
$PDMODE
 70
     0
  9
$PDSIZE
 40
0.3125
  9
$PLINEWID
 40
0.0
  9
$COORDS
 70
     1
  9
$SPLFRAME
 70
     0
  9
$SPLINETYPE
 70
     6
  9
$SPLINESEGS
 70
     8
  9
$ATTDIA
 70
     1
  9
$ATTREQ
 70
     1
  9
$HANDLING
 70
     1
  9
$HANDSEED
  5
2EC39
  9
$SURFTAB1
 70
     6
  9
$SURFTAB2
 70
     6
  9
$SURFTYPE
 70
     6
  9
$SURFU
 70
     6
  9
$SURFV
 70
     6
  9
$UCSNAME
  2

  9
$UCSORG
 10
0.0
 20
0.0
 30
0.0
  9
$UCSXDIR
 10
1.0
 20
0.0
 30
0.0
  9
$UCSYDIR
 10
0.0
 20
1.0
 30
0.0
  9
$PUCSNAME
  2

  9
$PUCSORG
 10
0.0
 20
0.0
 30
0.0
  9
$PUCSXDIR
 10
1.0
 20
0.0
 30
0.0
  9
$PUCSYDIR
 10
0.0
 20
1.0
 30
0.0
  9
$USERI1
 70
     0
  9
$USERI2
 70
     0
  9
$USERI3
 70
     0
  9
$USERI4
 70
     0
  9
$USERI5
 70
     0
  9
$USERR1
 40
0.0
  9
$USERR2
 40
0.0
  9
$USERR3
 40
0.0
  9
$USERR4
 40
0.0
  9
$USERR5
 40
0.0
  9
$WORLDVIEW
 70
     1
  9
$SHADEDGE
 70
     3
  9
$SHADEDIF
 70
    70
  9
$TILEMODE
 70
     1
  9
$MAXACTVP
 70
    64
  9
$PLIMCHECK
 70
     0
  9
$PEXTMIN
 10
1.0000000000000000E+20
 20
1.0000000000000000E+20
 30
1.0000000000000000E+20
  9
$PEXTMAX
 10
-1.0000000000000000E+20
 20
-1.0000000000000000E+20
 30
-1.0000000000000000E+20
  9
$PLIMMIN
 10
0.0
 20
0.0
  9
$PLIMMAX
 10
12.0
 20
9.0
  9
$UNITMODE
 70
     0
  9
$VISRETAIN
 70
     1
  9
$PLINEGEN
 70
     0
  9
$PSLTSCALE
 70
     1
  0
ENDSEC
  0
SECTION
  2
TABLES
  0
TABLE
  2
VPORT
 70
     1
  0
VPORT
  2
*ACTIVE
 70
     0
 10
0.0
 20
0.0
 11
1.0
 21
1.0
 12
2651.8186645021201002
 22
156.294845911308613
 13
0.0
 23
0.0
 14
1.0
 24
1.0
 15
0.0
 25
0.0
 16
0.0
 26
0.0
 36
60.4960186965801583
 17
3911.3653564453120453
 27
132.5796051025390057
 37
0.0
 40
2.5112161628458369
 41
2.1449438202247189
 42
50.0
 43
0.0
 44
0.0
 50
0.0
 51
0.0
 71
     0
 72
   100
 73
     1
 74
     1
 75
     0
 76
     0
 77
     0
 78
     0
  0
ENDTAB
  0
TABLE
  2
LTYPE
 70
     2
  0
LTYPE
  2
CONTINUOUS
 70
     0
  3
Solid line
 72
    65
 73
     0
 40
0.0
  0
LTYPE
  2
PHANTOM2
 70
     0
  3
___ _ _ ___ _ _ ___ _ _ ___ _ _
 72
    65
 73
     6
 40
1.25
 49
0.625
 49
-0.125
 49
0.125
 49
-0.125
 49
0.125
 49
-0.125
  0
ENDTAB
  0
TABLE
  2
LAYER
 70
     2
  0
LAYER
  2
0
 70
     0
 62
   255
  6
CONTINUOUS
  0
LAYER
  2
DEFPOINTS
 70
     0
 62
     7
  6
CONTINUOUS
  0
ENDTAB
  0
TABLE
  2
STYLE
 70
     1
  0
STYLE
  2
STANDARD
 70
     0
 40
0.0
 41
0.8
 50
0.0
 71
     0
 42
0.2
  3
txt
  4

  0
ENDTAB
  0
TABLE
  2
VIEW
 70
     0
  0
ENDTAB
  0
TABLE
  2
UCS
 70
     0
  0
ENDTAB
  0
TABLE
  2
APPID
 70
    11
  0
APPID
  2
ACAD
 70
     0
  0
APPID
  2
ACAD_MLEADERVER
 70
     0
  0
APPID
  2
ACAD_EXEMPT_FROM_CAD_STANDARDS
 70
     0
  0
APPID
  2
ACAD_NAV_VCDISPLAY
 70
     0
  0
APPID
  2
ACAECLAYERSTANDARD
 70
     0
  0
APPID
  2
ACCMTRANSPARENCY
 70
     0
  0
APPID
  2
ACAD_DSTYLE_DIMJAG
 70
     0
  0
APPID
  2
ACAD_DSTYLE_DIMTALN
 70
     0
  0
APPID
  2
ACDBATTR
 70
     0
  0
APPID
  2
ACADANNOTATIVE
 70
     0
  0
APPID
  2
DCO15
 70
     0
  0
ENDTAB
  0
TABLE
  2
DIMSTYLE
 70
     1
  0
DIMSTYLE
  2
STANDARD
 70
     0
  3

  4

  5

  6

  7

 40
1.0
 41
0.1875
 42
0.0625
 43
0.38
 44
0.125
 45
0.0
 46
0.0
 47
0.01
 48
0.01
140
0.15625
141
0.09
142
0.0
143
25.3999999999999986
144
1.0
145
0.0
146
1.0
147
0.09
 71
     1
 72
     0
 73
     1
 74
     1
 75
     0
 76
     0
 77
     0
 78
     4
170
     0
171
     2
172
     0
173
     0
174
     0
175
     0
176
     0
177
     0
178
     0
  0
ENDTAB
  0
ENDSEC
  0
SECTION
  2
BLOCKS
  0
BLOCK
  8
0
  2
$MODEL_SPACE
 70
     0
 10
0.0
 20
0.0
 30
0.0
  3
$MODEL_SPACE
  1

  0
ENDBLK
  5
21
  8
0
  0
BLOCK
 67
     1
  8
0
  2
$PAPER_SPACE
 70
     0
 10
0.0
 20
0.0
 30
0.0
  3
$PAPER_SPACE
  1

  0
ENDBLK
  5
1D
 67
     1
  8
0
  0
ENDSEC
  0
SECTION
  2
ENTITIES
  0
ATTDEF
  5
26A5B
  8
DEFPOINTS
 10
6563.1841594308980348
 20
287.6311996236591995
 30
0.0
 40
0.001
  1
P34580-BN
  3

  2
MODELNUMBER
 70
     0
1001
ACDBATTR
1070
     0
1070
     1
  0
ATTDEF
  5
26A5C
  8
DEFPOINTS
 10
6563.1840336212399052
 20
287.6295327832801263
 30
0.0
 40
0.001
  1
VICE
  3

  2
TRADENAME
 70
     0
1001
ACDBATTR
1070
     0
1070
     1
  0
ATTDEF
  5
26A5D
  8
DEFPOINTS
 10
6563.1841594308980348
 20
287.6278662903258123
 30
0.0
 40
0.001
  1
BATH FAUCET HANDLE
  3

  2
PRODUCT
 70
     0
1001
ACDBATTR
1070
     0
1070
     1
  0
LINE
  5
2EA8D
  8
0
 10
6561.9241784277819534
 20
287.6328756043956787
 30
0.0
 11
6564.4438634670823376
 21
287.6328756043956787
 31
0.0
  0
LINE
  5
2EA8E
  8
0
 10
6562.346777999184269
 20
288.0265763917955724
 30
0.0
 11
6564.0212638877437712
 21
288.0265763917955724
 31
0.0
  0
LINE
  5
2EA8F
  8
0
 10
6562.7119468393320858
 20
288.0462614310956724
 30
0.0
 11
6563.6560950555322052
 21
288.0462614310956724
 31
0.0
  0
LINE
  5
2EA90
  8
0
 10
6561.9241784277819534
 20
287.879151347910522
 30
0.0
 11
6561.9241784277819534
 21
287.6328756043956787
 31
0.0
  0
LINE
  5
2EA91
  8
0
 10
6561.9522569210930669
 20
287.9168897035489181
 30
0.0
 11
6562.2901992005254215
 21
288.0182723873588202
 31
0.0
  0
ARC
  5
2EA92
  8
0
 10
6561.9635784277816128
 20
287.879151347910522
 30
0.0
 40
0.0394
 50
106.6992442308894056
 51
180.0
  0
LINE
  5
2EA93
  8
0
 10
6564.4438634670823376
 20
287.8791488707553867
 30
0.0
 11
6564.4438634670823376
 21
287.6328756043956787
 31
0.0
  0
LINE
  5
2EA94
  8
0
 10
6564.4157980318159389
 20
287.9168833065170929
 30
0.0
 11
6564.0778439546766094
 21
288.0182720068713138
 31
0.0
  0
ARC
  5
2EA95
  8
0
 10
6564.4044634670817686
 20
287.8791488707553867
 30
0.0
 40
0.0393999999999988
 50
0.0
 51
73.2809295266049645
  0
ARC
  5
2EA96
  8
0
 10
6562.346777999184269
 20
287.8296763917957151
 30
0.0
 40
0.1969
 50
90.0
 51
106.6992442308894056
  0
LINE
  5
2EA97
  8
0
 10
6561.9522569210930669
 20
287.9168897035489181
 30
0.0
 11
6564.4157980318159389
 21
287.9168833065170929
 31
0.0
  0
LINE
  5
2EA98
  8
0
 10
6562.9084303962808917
 20
288.0462614310956724
 30
0.0
 11
6562.9084303962808917
 21
288.0265763917955724
 31
0.0
  0
ARC
  5
2EA99
  8
0
 10
6564.0212638877437712
 20
287.8296763917957151
 30
0.0
 40
0.1969
 50
73.3003704644054324
 51
90.0
  0
CIRCLE
  5
2EA9A
  8
0
 10
6563.184020947431236
 20
289.6210645806955881
 30
0.0
 40
0.4999711566739533
  0
LINE
  5
2EA9B
  8
0
 10
6562.701946839330958
 20
288.0562614310957201
 30
0.0
 11
6562.701946839330958
 21
289.488491160262015
 31
0.0
  0
LINE
  5
2EA9C
  8
0
 10
6562.9174763855462515
 20
288.0562614310957201
 30
0.0
 11
6562.9032688116540157
 21
289.2073625191073916
 31
0.0
  0
LINE
  5
2EA9D
  8
0
 10
6563.0115270998367123
 20
288.054918213295025
 30
0.0
 11
6563.0121292124131287
 21
289.1515708225496724
 31
0.0
  0
LINE
  5
2EA9E
  8
0
 10
6562.7875713773319148
 20
289.3164354687029913
 30
0.0
 11
6562.7875713745306712
 21
288.0562614310957201
 31
0.0
  0
ARC
  5
2EA9F
  8
0
 10
6562.9274743212454268
 20
288.056259366795075
 30
0.0
 40
0.0099979359129354
 50
179.9881699872838965
 51
270.011839911073082
  0
ARC
  5
2EAA0
  8
0
 10
6562.7966697055089753
 20
288.0552689765219156
 30
0.0
 40
0.0091522998547754
 50
173.7747349173396003
 51
259.7961864744564195
  0
ARC
  5
2EAA1
  8
0
 10
6562.7119468393320858
 20
288.0562614310957201
 30
0.0
 40
0.0100000000000007
 50
180.0000000000065086
 51
270.0000034377624729
  0
ARC
  5
2EAA2
  8
0
 10
6563.0203168049583837
 20
288.0548686249678099
 30
0.0
 40
0.0087898449992971
 50
179.6767614298238982
 51
258.2992622233990119
  0
LINE
  5
2EAA3
  8
0
 10
6563.4596114985806707
 20
288.0462614310956724
 30
0.0
 11
6563.4596114985806707
 21
288.0265763917955724
 31
0.0
  0
LINE
  5
2EAA4
  8
0
 10
6563.6660950555306044
 20
288.0562614310957201
 30
0.0
 11
6563.6660950555306044
 21
289.488491160262015
 31
0.0
  0
LINE
  5
2EAA5
  8
0
 10
6563.4505655093180394
 20
288.0562614310957201
 30
0.0
 11
6563.4647730832102752
 21
289.2073625191073916
 31
0.0
  0
LINE
  5
2EAA6
  8
0
 10
6563.3565147950257597
 20
288.054918213295025
 30
0.0
 11
6563.3559126824502528
 21
289.1515708225496724
 31
0.0
  0
LINE
  5
2EAA7
  8
0
 10
6563.5804705175323761
 20
289.3164354687029913
 30
0.0
 11
6563.5804705203308913
 21
288.0562614310957201
 31
0.0
  0
ARC
  5
2EAA8
  8
0
 10
6563.4405675736179546
 20
288.056259366795075
 30
0.0
 40
0.0099979359129354
 50
269.9881600889268043
 51
0.0118300127161109
  0
ARC
  5
2EAA9
  8
0
 10
6563.5713721893553156
 20
288.0552689765219156
 30
0.0
 40
0.0091522998547754
 50
280.2038135255435805
 51
6.2252650826603544
  0
ARC
  5
2EAAA
  8
0
 10
6563.6560950555322052
 20
288.0562614310957201
 30
0.0
 40
0.0100000000000007
 50
269.9999965622374134
 51
359.9999999999935199
  0
ARC
  5
2EAAB
  8
0
 10
6563.3477250899059072
 20
288.0548686249678099
 30
0.0
 40
0.0087898449992971
 50
281.7007377766009881
 51
0.3232385701761002
  0
CIRCLE
  5
2EAAC
  8
0
 10
6563.184020947431236
 20
289.6210645806955881
 30
0.0
 40
0.3605836753015398
  0
ENDSEC
  0
EOF
