  0
SECTION
  2
HEADER
  9
$ACADVER
  1
AC1009
  9
$INSBASE
 10
6564.893207384757261
 20
288.1777571472010209
 30
0.0
  9
$EXTMIN
 10
6563.6333648651079784
 20
285.0282301790011275
 30
0.0
  9
$EXTMAX
 10
6566.1530499044074531
 20
289.4375996668510993
 30
0.0
  9
$LIMMIN
 10
0.0
 20
0.0
  9
$LIMMAX
 10
11.6929133858000007
 20
8.2677165353999982
  9
$ORTHOMODE
 70
     0
  9
$REGENMODE
 70
     1
  9
$FILLMODE
 70
     1
  9
$QTEXTMODE
 70
     0
  9
$MIRRTEXT
 70
     0
  9
$DRAGMODE
 70
     2
  9
$LTSCALE
 40
0.6431102362
  9
$OSMODE
 70
  4095
  9
$ATTMODE
 70
     1
  9
$TEXTSIZE
 40
0.2
  9
$TRACEWID
 40
0.05
  9
$TEXTSTYLE
  7
STANDARD
  9
$CLAYER
  8
0
  9
$CELTYPE
  6
BYLAYER
  9
$CECOLOR
 62
   256
  9
$DIMSCALE
 40
1.0
  9
$DIMASZ
 40
0.1875
  9
$DIMEXO
 40
0.0625
  9
$DIMDLI
 40
0.4443307087
  9
$DIMRND
 40
0.0
  9
$DIMDLE
 40
0.0
  9
$DIMEXE
 40
0.125
  9
$DIMTP
 40
0.01
  9
$DIMTM
 40
0.01
  9
$DIMTXT
 40
2.0
  9
$DIMCEN
 40
0.1052362205
  9
$DIMTSZ
 40
0.0
  9
$DIMTOL
 70
     1
  9
$DIMLIM
 70
     0
  9
$DIMTIH
 70
     1
  9
$DIMTOH
 70
     1
  9
$DIMSE1
 70
     0
  9
$DIMSE2
 70
     0
  9
$DIMTAD
 70
     0
  9
$DIMZIN
 70
     0
  9
$DIMBLK
  1

  9
$DIMASO
 70
     1
  9
$DIMSHO
 70
     1
  9
$DIMPOST
  1
\X
  9
$DIMAPOST
  1

  9
$DIMALT
 70
     1
  9
$DIMALTD
 70
     2
  9
$DIMALTF
 40
25.3999999999999986
  9
$DIMLFAC
 40
1.0
  9
$DIMTOFL
 70
     0
  9
$DIMTVP
 40
0.0
  9
$DIMTIX
 70
     0
  9
$DIMSOXD
 70
     0
  9
$DIMSAH
 70
     0
  9
$DIMBLK1
  1

  9
$DIMBLK2
  1

  9
$DIMSTYLE
  2
STANDARD
  9
$DIMCLRD
 70
     0
  9
$DIMCLRE
 70
     0
  9
$DIMCLRT
 70
     0
  9
$DIMTFAC
 40
1.0
  9
$DIMGAP
 40
0.09
  9
$LUNITS
 70
     2
  9
$LUPREC
 70
     4
  9
$SKETCHINC
 40
0.1
  9
$FILLETRAD
 40
0.0
  9
$AUNITS
 70
     0
  9
$AUPREC
 70
     0
  9
$MENU
  1
.
  9
$ELEVATION
 40
0.0
  9
$PELEVATION
 40
0.0
  9
$THICKNESS
 40
0.0
  9
$LIMCHECK
 70
     0
  9
$BLIPMODE
 70
     0
  9
$CHAMFERA
 40
0.0
  9
$CHAMFERB
 40
0.0
  9
$SKPOLY
 70
     0
  9
$TDCREATE
 40
2458060.468368056230247
  9
$TDUPDATE
 40
2460679.6790162031538785
  9
$TDINDWG
 40
0.7996251157000001
  9
$TDUSRTIMER
 40
0.7996251157000001
  9
$USRTIMER
 70
     1
  9
$ANGBASE
 50
0.0
  9
$ANGDIR
 70
     0
  9
$PDMODE
 70
     0
  9
$PDSIZE
 40
0.3125
  9
$PLINEWID
 40
0.0
  9
$COORDS
 70
     1
  9
$SPLFRAME
 70
     0
  9
$SPLINETYPE
 70
     6
  9
$SPLINESEGS
 70
     8
  9
$ATTDIA
 70
     1
  9
$ATTREQ
 70
     1
  9
$HANDLING
 70
     1
  9
$HANDSEED
  5
2EBFD
  9
$SURFTAB1
 70
     6
  9
$SURFTAB2
 70
     6
  9
$SURFTYPE
 70
     6
  9
$SURFU
 70
     6
  9
$SURFV
 70
     6
  9
$UCSNAME
  2

  9
$UCSORG
 10
0.0
 20
0.0
 30
0.0
  9
$UCSXDIR
 10
1.0
 20
0.0
 30
0.0
  9
$UCSYDIR
 10
0.0
 20
1.0
 30
0.0
  9
$PUCSNAME
  2

  9
$PUCSORG
 10
0.0
 20
0.0
 30
0.0
  9
$PUCSXDIR
 10
1.0
 20
0.0
 30
0.0
  9
$PUCSYDIR
 10
0.0
 20
1.0
 30
0.0
  9
$USERI1
 70
     0
  9
$USERI2
 70
     0
  9
$USERI3
 70
     0
  9
$USERI4
 70
     0
  9
$USERI5
 70
     0
  9
$USERR1
 40
0.0
  9
$USERR2
 40
0.0
  9
$USERR3
 40
0.0
  9
$USERR4
 40
0.0
  9
$USERR5
 40
0.0
  9
$WORLDVIEW
 70
     1
  9
$SHADEDGE
 70
     3
  9
$SHADEDIF
 70
    70
  9
$TILEMODE
 70
     1
  9
$MAXACTVP
 70
    64
  9
$PLIMCHECK
 70
     0
  9
$PEXTMIN
 10
1.0000000000000000E+20
 20
1.0000000000000000E+20
 30
1.0000000000000000E+20
  9
$PEXTMAX
 10
-1.0000000000000000E+20
 20
-1.0000000000000000E+20
 30
-1.0000000000000000E+20
  9
$PLIMMIN
 10
0.0
 20
0.0
  9
$PLIMMAX
 10
12.0
 20
9.0
  9
$UNITMODE
 70
     0
  9
$VISRETAIN
 70
     1
  9
$PLINEGEN
 70
     0
  9
$PSLTSCALE
 70
     1
  0
ENDSEC
  0
SECTION
  2
TABLES
  0
TABLE
  2
VPORT
 70
     1
  0
VPORT
  2
*ACTIVE
 70
     0
 10
0.0
 20
0.0
 11
1.0
 21
1.0
 12
2653.5278509394452158
 22
154.653309820386994
 13
0.0
 23
0.0
 14
1.0
 24
1.0
 15
0.0
 25
0.0
 16
0.0
 26
0.0
 36
60.4960186965801583
 17
3911.3653564453120453
 27
132.5796051025390057
 37
0.0
 40
4.4416715802863411
 41
2.1449438202247189
 42
50.0
 43
0.0
 44
0.0
 50
0.0
 51
0.0
 71
     0
 72
   100
 73
     1
 74
     1
 75
     0
 76
     0
 77
     0
 78
     0
  0
ENDTAB
  0
TABLE
  2
LTYPE
 70
     2
  0
LTYPE
  2
CONTINUOUS
 70
     0
  3
Solid line
 72
    65
 73
     0
 40
0.0
  0
LTYPE
  2
PHANTOM2
 70
     0
  3
___ _ _ ___ _ _ ___ _ _ ___ _ _
 72
    65
 73
     6
 40
1.25
 49
0.625
 49
-0.125
 49
0.125
 49
-0.125
 49
0.125
 49
-0.125
  0
ENDTAB
  0
TABLE
  2
LAYER
 70
     2
  0
LAYER
  2
0
 70
     0
 62
   255
  6
CONTINUOUS
  0
LAYER
  2
DEFPOINTS
 70
     0
 62
     7
  6
CONTINUOUS
  0
ENDTAB
  0
TABLE
  2
STYLE
 70
     1
  0
STYLE
  2
STANDARD
 70
     0
 40
0.0
 41
0.8
 50
0.0
 71
     0
 42
0.2
  3
txt
  4

  0
ENDTAB
  0
TABLE
  2
VIEW
 70
     0
  0
ENDTAB
  0
TABLE
  2
UCS
 70
     0
  0
ENDTAB
  0
TABLE
  2
APPID
 70
    11
  0
APPID
  2
ACAD
 70
     0
  0
APPID
  2
ACAD_MLEADERVER
 70
     0
  0
APPID
  2
ACAD_EXEMPT_FROM_CAD_STANDARDS
 70
     0
  0
APPID
  2
ACAD_NAV_VCDISPLAY
 70
     0
  0
APPID
  2
ACAECLAYERSTANDARD
 70
     0
  0
APPID
  2
ACCMTRANSPARENCY
 70
     0
  0
APPID
  2
ACAD_DSTYLE_DIMJAG
 70
     0
  0
APPID
  2
ACAD_DSTYLE_DIMTALN
 70
     0
  0
APPID
  2
ACDBATTR
 70
     0
  0
APPID
  2
ACADANNOTATIVE
 70
     0
  0
APPID
  2
DCO15
 70
     0
  0
ENDTAB
  0
TABLE
  2
DIMSTYLE
 70
     1
  0
DIMSTYLE
  2
STANDARD
 70
     0
  3

  4

  5

  6

  7

 40
1.0
 41
0.1875
 42
0.0625
 43
0.38
 44
0.125
 45
0.0
 46
0.0
 47
0.01
 48
0.01
140
0.15625
141
0.09
142
0.0
143
25.3999999999999986
144
1.0
145
0.0
146
1.0
147
0.09
 71
     1
 72
     0
 73
     1
 74
     1
 75
     0
 76
     0
 77
     0
 78
     4
170
     0
171
     2
172
     0
173
     0
174
     0
175
     0
176
     0
177
     0
178
     0
  0
ENDTAB
  0
ENDSEC
  0
SECTION
  2
BLOCKS
  0
BLOCK
  8
0
  2
$MODEL_SPACE
 70
     0
 10
0.0
 20
0.0
 30
0.0
  3
$MODEL_SPACE
  1

  0
ENDBLK
  5
21
  8
0
  0
BLOCK
 67
     1
  8
0
  2
$PAPER_SPACE
 70
     0
 10
0.0
 20
0.0
 30
0.0
  3
$PAPER_SPACE
  1

  0
ENDBLK
  5
1D
 67
     1
  8
0
  0
ENDSEC
  0
SECTION
  2
ENTITIES
  0
ATTDEF
  5
26A5B
  8
DEFPOINTS
 10
6564.8833772795578625
 20
288.1821561841945822
 30
0.0
 40
0.001
  1
P34580-BN
  3

  2
MODELNUMBER
 70
     0
1001
ACDBATTR
1070
     0
1070
     1
  0
ATTDEF
  5
26A5C
  8
DEFPOINTS
 10
6564.8832514698997329
 20
288.1804893438155091
 30
0.0
 40
0.001
  1
VICE
  3

  2
TRADENAME
 70
     0
1001
ACDBATTR
1070
     0
1070
     1
  0
ATTDEF
  5
26A5D
  8
DEFPOINTS
 10
6564.8833772795578625
 20
288.1788228508613088
 30
0.0
 40
0.001
  1
BATH FAUCET HANDLE
  3

  2
PRODUCT
 70
     0
1001
ACDBATTR
1070
     0
1070
     1
  0
LINE
  5
2EA3D
  8
0
 10
6565.2589139191250069
 20
285.0282301790011275
 30
0.0
 11
6564.5275008503904246
 21
285.0282301790011275
 31
0.0
  0
LINE
  5
2EA3E
  8
0
 10
6565.3817555757614173
 20
285.1349175067035162
 30
0.0
 11
6564.4046591937549238
 21
285.1349175067035162
 31
0.0
  0
ARC
  5
2EA3F
  8
0
 10
6564.893207384757261
 20
288.1778673834011215
 30
0.0
 40
0.491858858600001
 50
64.2732245754463491
 51
115.726775424553594
  0
ARC
  5
2EA40
  8
0
 10
6564.893207384757261
 20
288.1778673834011215
 30
0.0
 40
0.4999690948000004
 50
16.0357451654329317
 51
163.9642548345669866
  0
ARC
  5
2EA41
  8
0
 10
6564.6477144938189667
 20
288.5902550574979273
 30
0.0
 40
0.0200417325028305
 50
30.0498720692723396
 51
120.596355307063007
  0
LINE
  5
2EA42
  8
0
 10
6564.6683828310578974
 20
287.7907965442173008
 30
0.0
 11
6564.6683828310578974
 21
288.6029528861424183
 31
0.0
  0
LINE
  5
2EA43
  8
0
 10
6564.411198152630277
 20
288.3053698478727256
 30
0.0
 11
6564.411198152630277
 21
288.3036594548207177
 31
0.0
  0
LINE
  5
2EA44
  8
0
 10
6564.411198152630277
 20
288.2039513842693736
 30
0.0
 11
6564.411198152630277
 21
286.9580013469224014
 31
0.0
  0
ARC
  5
2EA45
  8
0
 10
6564.4495981526306423
 20
288.3053698478727256
 30
0.0
 40
0.0384
 50
163.9642548345294983
 51
180.0000000000129887
  0
ARC
  5
2EA46
  8
0
 10
6563.7396809948204464
 20
288.2735493894978163
 30
0.0
 40
0.6721918693859938
 50
0.0095243957880158
 51
2.5673579074830841
  0
ARC
  5
2EA47
  8
0
 10
6560.8711671903010938
 20
288.2730725505181226
 30
0.0
 40
3.540705713538133
 50
358.8814086752821026
 51
0.0095243957880158
  0
LINE
  5
2EA48
  8
0
 10
6564.3932539746765542
 20
286.7617598774979228
 30
0.0
 11
6564.3932362280856978
 21
285.1624952340796995
 31
0.0
  0
ARC
  5
2EA49
  8
0
 10
6563.7354336227235763
 20
286.9756332094958111
 30
0.0
 40
0.6759945136291891
 50
352.5455222252264207
 51
358.5053933559636903
  0
ARC
  5
2EA4A
  8
0
 10
6559.8528209304704433
 20
287.49321191175801
 30
0.0
 40
4.5929519812848651
 50
351.786380329319627
 51
352.4272598021956924
  0
ARC
  5
2EA4B
  8
0
 10
6564.9202539746447655
 20
286.7617540295269123
 30
0.0
 40
0.5270000000000001
 50
171.7863803293195986
 51
179.9993642048156914
  0
LINE
  5
2EA4C
  8
0
 10
6564.4046591937549238
 20
285.1349175067035162
 30
0.0
 11
6564.4999236859230223
 21
285.0396530145347924
 31
0.0
  0
ARC
  5
2EA4D
  8
0
 10
6564.4322362280863672
 20
285.1624948013081848
 30
0.0
 40
0.0390000000028467
 50
179.9993642056527108
 51
225.0002703787417886
  0
ARC
  5
2EA4E
  8
0
 10
6564.5275008503904246
 20
285.0672301790011147
 30
0.0
 40
0.039
 50
224.9999999999953957
 51
270.0
  0
ARC
  5
2EA4F
  8
0
 10
6564.8372041728516706
 20
287.792840830741909
 30
0.0
 40
0.1688337186490026
 50
180.6937704930076052
 51
205.4722751140025139
  0
ARC
  5
2EA50
  8
0
 10
6564.8174461864164186
 20
287.7834284877457094
 30
0.0
 40
0.1469483301732679
 50
205.4722751140025139
 51
224.3642158577191026
  0
ARC
  5
2EA51
  8
0
 10
6564.8194073768017915
 20
287.782666421142892
 30
0.0
 40
0.1478299723144308
 50
223.6215526772915894
 51
243.841889586720697
  0
ARC
  5
2EA52
  8
0
 10
6564.8171004844098206
 20
287.7793763217832179
 30
0.0
 40
0.1438611858021138
 50
244.0888914922529125
 51
263.1427772290678035
  0
ARC
  5
2EA53
  8
0
 10
6564.8953172839828767
 20
288.511712415508498
 30
0.0
 40
0.8803517762843984
 50
263.7793275528590016
 51
269.862681669094286
  0
LINE
  5
2EA54
  8
0
 10
6564.6650624142457673
 20
288.6003198421562956
 30
0.0
 11
6564.6683828310578974
 21
288.5945687115010969
 31
0.0
  0
ARC
  5
2EA55
  8
0
 10
6564.6883828310574245
 20
288.6029528861424183
 30
0.0
 40
0.02
 50
115.7267754244967932
 51
180.0000000000227942
  0
LINE
  5
2EA56
  8
0
 10
6564.6650676560202555
 20
288.6003107631398734
 30
0.0
 11
6564.6683828310578974
 21
288.60257839265239
 31
0.0
  0
ARC
  5
2EA57
  8
0
 10
6565.1387002756982838
 20
288.5902550574979273
 30
0.0
 40
0.0200417325028305
 50
59.4036446929369433
 51
149.9501279307276036
  0
LINE
  5
2EA58
  8
0
 10
6565.1180319384584436
 20
287.7907965442173008
 30
0.0
 11
6565.1180319384584436
 21
288.6029528861424183
 31
0.0
  0
LINE
  5
2EA59
  8
0
 10
6565.375216616884245
 20
288.3053698478727256
 30
0.0
 11
6565.375216616884245
 21
288.3036594548207177
 31
0.0
  0
LINE
  5
2EA5A
  8
0
 10
6565.375216616884245
 20
288.2039513842693736
 30
0.0
 11
6565.375216616884245
 21
286.9580013469224014
 31
0.0
  0
ARC
  5
2EA5B
  8
0
 10
6565.3368166168838798
 20
288.3053698478727256
 30
0.0
 40
0.0384
 50
359.9999999999869829
 51
16.035745165470491
  0
ARC
  5
2EA5C
  8
0
 10
6566.0467337746968042
 20
288.2735493894978163
 30
0.0
 40
0.6721918693859938
 50
177.4326420925168861
 51
179.9904756042120084
  0
ARC
  5
2EA5D
  8
0
 10
6568.9152475792161567
 20
288.2730725505181226
 30
0.0
 40
3.540705713538133
 50
179.9904756042120084
 51
181.1185913247178974
  0
LINE
  5
2EA5E
  8
0
 10
6565.3931607948379678
 20
286.7617598774979228
 30
0.0
 11
6565.3931785414288242
 21
285.1624952340796995
 31
0.0
  0
ARC
  5
2EA5F
  8
0
 10
6566.0509811467909458
 20
286.9756332094958111
 30
0.0
 40
0.6759945136291891
 50
181.4946066440363097
 51
187.454477774773494
  0
ARC
  5
2EA60
  8
0
 10
6569.9335938390449883
 20
287.49321191175801
 30
0.0
 40
4.5929519812848651
 50
187.5727401978043076
 51
188.2136196706802878
  0
ARC
  5
2EA61
  8
0
 10
6564.866160794870666
 20
286.7617540295269123
 30
0.0
 40
0.5270000000000001
 50
0.0006357951842718
 51
8.2136196706803748
  0
LINE
  5
2EA62
  8
0
 10
6565.3817555757614173
 20
285.1349175067035162
 30
0.0
 11
6565.2864910835905903
 21
285.0396530145347924
 31
0.0
  0
ARC
  5
2EA63
  8
0
 10
6565.3541785414290644
 20
285.1624948013081848
 30
0.0
 40
0.0390000000028467
 50
314.9997296212580977
 51
0.0006357943472516
  0
ARC
  5
2EA64
  8
0
 10
6565.2589139191250069
 20
285.0672301790011147
 30
0.0
 40
0.039
 50
270.0
 51
315.0000000000046043
  0
ARC
  5
2EA65
  8
0
 10
6564.9492105966628515
 20
287.792840830741909
 30
0.0
 40
0.1688337186490026
 50
334.5277248859974861
 51
359.3062295069922811
  0
ARC
  5
2EA66
  8
0
 10
6564.9689685831008319
 20
287.7834284877457094
 30
0.0
 40
0.1469483301732679
 50
315.6357841422808974
 51
334.5277248859974861
  0
ARC
  5
2EA67
  8
0
 10
6564.96700739271364
 20
287.782666421142892
 30
0.0
 40
0.1478299723144308
 50
296.158110413279303
 51
316.3784473227083254
  0
ARC
  5
2EA68
  8
0
 10
6564.9693142851047014
 20
287.7793763217832179
 30
0.0
 40
0.1438611858021138
 50
276.8572227709321965
 51
295.9111085077470875
  0
ARC
  5
2EA69
  8
0
 10
6564.8910974855316454
 20
288.511712415508498
 30
0.0
 40
0.8803517762843984
 50
270.137318330905714
 51
276.2206724471408847
  0
LINE
  5
2EA6A
  8
0
 10
6565.1213523552678453
 20
288.6003198421562956
 30
0.0
 11
6565.1180319384584436
 21
288.5945687115010969
 31
0.0
  0
ARC
  5
2EA6B
  8
0
 10
6565.0980319384580071
 20
288.6029528861424183
 30
0.0
 40
0.02
 50
359.9999999999772058
 51
64.2732245755031926
  0
LINE
  5
2EA6C
  8
0
 10
6565.1213471134960855
 20
288.6003107631398734
 30
0.0
 11
6565.1180319384584436
 21
288.60257839265239
 31
0.0
  0
ARC
  5
2EA6D
  8
0
 10
6564.893207384757261
 20
288.1777571472010209
 30
0.0
 40
1.25984251965
 50
292.4945051767747941
 51
247.5054948232252059
  0
ARC
  5
2EA6E
  8
0
 10
6564.893207384757261
 20
288.1778673834011215
 30
0.0
 40
0.893814773499999
 50
302.6340907885746105
 51
237.3659092114253895
  0
CIRCLE
  5
2EA6F
  8
0
 10
6564.8932073847081483
 20
287.9023102271510766
 30
0.0
 40
0.0984251968999992
  0
CIRCLE
  5
2EA70
  8
0
 10
6564.8932073847081483
 20
287.9023102271510766
 30
0.0
 40
0.0468053359000003
  0
ENDSEC
  0
EOF
