  0
SECTION
  2
HEADER
  9
$ACADVER
  1
AC1009
  9
$INSBASE
 10
6638.1067259133396874
 20
283.5574405541324836
 30
0.0
  9
$EXTMIN
 10
6630.7604046394735633
 20
276.494838467540319
 30
-0.0015258207003583
  9
$EXTMAX
 10
6645.4631977601793551
 20
284.6835128668448078
 30
0.0000000349246037
  9
$LIMMIN
 10
0.0
 20
0.0
  9
$LIMMAX
 10
11.6929133858000007
 20
8.2677165353999982
  9
$ORTHOMODE
 70
     0
  9
$REGENMODE
 70
     1
  9
$FILLMODE
 70
     1
  9
$QTEXTMODE
 70
     0
  9
$MIRRTEXT
 70
     0
  9
$DRAGMODE
 70
     2
  9
$LTSCALE
 40
0.6431102362
  9
$OSMODE
 70
  4095
  9
$ATTMODE
 70
     1
  9
$TEXTSIZE
 40
0.2
  9
$TRACEWID
 40
0.05
  9
$TEXTSTYLE
  7
STANDARD
  9
$CLAYER
  8
0
  9
$CELTYPE
  6
BYLAYER
  9
$CECOLOR
 62
   256
  9
$DIMSCALE
 40
1.0
  9
$DIMASZ
 40
0.1875
  9
$DIMEXO
 40
0.0625
  9
$DIMDLI
 40
0.4443307087
  9
$DIMRND
 40
0.0
  9
$DIMDLE
 40
0.0
  9
$DIMEXE
 40
0.125
  9
$DIMTP
 40
0.01
  9
$DIMTM
 40
0.01
  9
$DIMTXT
 40
2.0
  9
$DIMCEN
 40
0.1052362205
  9
$DIMTSZ
 40
0.0
  9
$DIMTOL
 70
     1
  9
$DIMLIM
 70
     0
  9
$DIMTIH
 70
     1
  9
$DIMTOH
 70
     1
  9
$DIMSE1
 70
     0
  9
$DIMSE2
 70
     0
  9
$DIMTAD
 70
     0
  9
$DIMZIN
 70
     0
  9
$DIMBLK
  1

  9
$DIMASO
 70
     1
  9
$DIMSHO
 70
     1
  9
$DIMPOST
  1
\X
  9
$DIMAPOST
  1

  9
$DIMALT
 70
     1
  9
$DIMALTD
 70
     2
  9
$DIMALTF
 40
25.3999999999999986
  9
$DIMLFAC
 40
1.0
  9
$DIMTOFL
 70
     0
  9
$DIMTVP
 40
0.0
  9
$DIMTIX
 70
     0
  9
$DIMSOXD
 70
     0
  9
$DIMSAH
 70
     0
  9
$DIMBLK1
  1

  9
$DIMBLK2
  1

  9
$DIMSTYLE
  2
STANDARD
  9
$DIMCLRD
 70
     0
  9
$DIMCLRE
 70
     0
  9
$DIMCLRT
 70
     0
  9
$DIMTFAC
 40
1.0
  9
$DIMGAP
 40
0.09
  9
$LUNITS
 70
     2
  9
$LUPREC
 70
     4
  9
$SKETCHINC
 40
0.1
  9
$FILLETRAD
 40
0.0
  9
$AUNITS
 70
     0
  9
$AUPREC
 70
     0
  9
$MENU
  1
.
  9
$ELEVATION
 40
0.0
  9
$PELEVATION
 40
0.0
  9
$THICKNESS
 40
0.0
  9
$LIMCHECK
 70
     0
  9
$BLIPMODE
 70
     0
  9
$CHAMFERA
 40
0.0
  9
$CHAMFERB
 40
0.0
  9
$SKPOLY
 70
     0
  9
$TDCREATE
 40
2458060.468368056230247
  9
$TDUPDATE
 40
2460693.4583912040106952
  9
$TDINDWG
 40
0.8358403934999999
  9
$TDUSRTIMER
 40
0.8358403934999999
  9
$USRTIMER
 70
     1
  9
$ANGBASE
 50
0.0
  9
$ANGDIR
 70
     0
  9
$PDMODE
 70
     0
  9
$PDSIZE
 40
0.3125
  9
$PLINEWID
 40
0.0
  9
$COORDS
 70
     2
  9
$SPLFRAME
 70
     0
  9
$SPLINETYPE
 70
     6
  9
$SPLINESEGS
 70
     8
  9
$ATTDIA
 70
     1
  9
$ATTREQ
 70
     1
  9
$HANDLING
 70
     1
  9
$HANDSEED
  5
2F80F
  9
$SURFTAB1
 70
     6
  9
$SURFTAB2
 70
     6
  9
$SURFTYPE
 70
     6
  9
$SURFU
 70
     6
  9
$SURFV
 70
     6
  9
$UCSNAME
  2

  9
$UCSORG
 10
0.0
 20
0.0
 30
0.0
  9
$UCSXDIR
 10
1.0
 20
0.0
 30
0.0
  9
$UCSYDIR
 10
0.0
 20
1.0
 30
0.0
  9
$PUCSNAME
  2

  9
$PUCSORG
 10
0.0
 20
0.0
 30
0.0
  9
$PUCSXDIR
 10
1.0
 20
0.0
 30
0.0
  9
$PUCSYDIR
 10
0.0
 20
1.0
 30
0.0
  9
$USERI1
 70
     0
  9
$USERI2
 70
     0
  9
$USERI3
 70
     0
  9
$USERI4
 70
     0
  9
$USERI5
 70
     0
  9
$USERR1
 40
0.0
  9
$USERR2
 40
0.0
  9
$USERR3
 40
0.0
  9
$USERR4
 40
0.0
  9
$USERR5
 40
0.0
  9
$WORLDVIEW
 70
     1
  9
$SHADEDGE
 70
     3
  9
$SHADEDIF
 70
    70
  9
$TILEMODE
 70
     1
  9
$MAXACTVP
 70
    64
  9
$PLIMCHECK
 70
     0
  9
$PEXTMIN
 10
1.0000000000000000E+20
 20
1.0000000000000000E+20
 30
1.0000000000000000E+20
  9
$PEXTMAX
 10
-1.0000000000000000E+20
 20
-1.0000000000000000E+20
 30
-1.0000000000000000E+20
  9
$PLIMMIN
 10
0.0
 20
0.0
  9
$PLIMMAX
 10
12.0
 20
9.0
  9
$UNITMODE
 70
     0
  9
$VISRETAIN
 70
     1
  9
$PLINEGEN
 70
     0
  9
$PSLTSCALE
 70
     1
  0
ENDSEC
  0
SECTION
  2
TABLES
  0
TABLE
  2
VPORT
 70
     1
  0
VPORT
  2
*ACTIVE
 70
     0
 10
0.0
 20
0.0
 11
1.0
 21
1.0
 12
2726.7464447545139592
 22
148.0095705646533872
 13
0.0
 23
0.0
 14
1.0
 24
1.0
 15
0.0
 25
0.0
 16
0.0
 26
0.0
 36
60.4960186965801583
 17
3911.3653564453120453
 27
132.5796051025390057
 37
0.0
 40
8.2467501042641516
 41
2.21775147928994
 42
50.0
 43
0.0
 44
0.0
 50
0.0
 51
0.0
 71
     0
 72
   100
 73
     1
 74
     1
 75
     0
 76
     0
 77
     0
 78
     0
  0
ENDTAB
  0
TABLE
  2
LTYPE
 70
     2
  0
LTYPE
  2
CONTINUOUS
 70
     0
  3
Solid line
 72
    65
 73
     0
 40
0.0
  0
LTYPE
  2
PHANTOM2
 70
     0
  3
___ _ _ ___ _ _ ___ _ _ ___ _ _
 72
    65
 73
     6
 40
1.25
 49
0.625
 49
-0.125
 49
0.125
 49
-0.125
 49
0.125
 49
-0.125
  0
ENDTAB
  0
TABLE
  2
LAYER
 70
     2
  0
LAYER
  2
0
 70
     0
 62
   255
  6
CONTINUOUS
  0
LAYER
  2
DEFPOINTS
 70
     0
 62
     7
  6
CONTINUOUS
  0
ENDTAB
  0
TABLE
  2
STYLE
 70
     1
  0
STYLE
  2
STANDARD
 70
     0
 40
0.0
 41
0.8
 50
0.0
 71
     0
 42
0.2
  3
txt
  4

  0
ENDTAB
  0
TABLE
  2
VIEW
 70
     0
  0
ENDTAB
  0
TABLE
  2
UCS
 70
     0
  0
ENDTAB
  0
TABLE
  2
APPID
 70
    11
  0
APPID
  2
ACAD
 70
     0
  0
APPID
  2
ACAD_MLEADERVER
 70
     0
  0
APPID
  2
ACAD_EXEMPT_FROM_CAD_STANDARDS
 70
     0
  0
APPID
  2
ACAD_NAV_VCDISPLAY
 70
     0
  0
APPID
  2
ACAECLAYERSTANDARD
 70
     0
  0
APPID
  2
ACCMTRANSPARENCY
 70
     0
  0
APPID
  2
ACAD_DSTYLE_DIMJAG
 70
     0
  0
APPID
  2
ACAD_DSTYLE_DIMTALN
 70
     0
  0
APPID
  2
ACDBATTR
 70
     0
  0
APPID
  2
ACADANNOTATIVE
 70
     0
  0
APPID
  2
DCO15
 70
     0
  0
ENDTAB
  0
TABLE
  2
DIMSTYLE
 70
     1
  0
DIMSTYLE
  2
STANDARD
 70
     0
  3

  4

  5

  6

  7

 40
1.0
 41
0.1875
 42
0.0625
 43
0.38
 44
0.125
 45
0.0
 46
0.0
 47
0.01
 48
0.01
140
0.15625
141
0.09
142
0.0
143
25.3999999999999986
144
1.0
145
0.0
146
1.0
147
0.09
 71
     1
 72
     0
 73
     1
 74
     1
 75
     0
 76
     0
 77
     0
 78
     4
170
     0
171
     2
172
     0
173
     0
174
     0
175
     0
176
     0
177
     0
178
     0
  0
ENDTAB
  0
ENDSEC
  0
SECTION
  2
BLOCKS
  0
BLOCK
  8
0
  2
$MODEL_SPACE
 70
     0
 10
0.0
 20
0.0
 30
0.0
  3
$MODEL_SPACE
  1

  0
ENDBLK
  5
21
  8
0
  0
BLOCK
 67
     1
  8
0
  2
$PAPER_SPACE
 70
     0
 10
0.0
 20
0.0
 30
0.0
  3
$PAPER_SPACE
  1

  0
ENDBLK
  5
1D
 67
     1
  8
0
  0
BLOCK
  8
0
  2
_FILLED
 70
     0
 10
0.0
 20
0.0
 30
0.0
  3
_FILLED
  1

  0
SOLID
  5
2EA00
  8
0
  6
BYBLOCK
 62
     0
 10
0.0
 20
0.0
 30
0.0
 11
-1.0
 21
0.1666666667
 31
0.0
 12
-1.0
 22
-0.1666666667
 32
0.0
 13
-1.0
 23
-0.1666666667
 33
0.0
  0
ENDBLK
  5
2EA01
  8
0
  6
BYBLOCK
 62
     0
  0
ENDSEC
  0
SECTION
  2
ENTITIES
  0
ATTDEF
  5
26A5B
  8
DEFPOINTS
 10
6638.0971410354159161
 20
283.56193710971462
 30
0.0
 40
0.001
  1
P34582-BAF
  3

  2
MODELNUMBER
 70
     0
1001
ACDBATTR
1070
     0
1070
     1
  0
ATTDEF
  5
26A5C
  8
DEFPOINTS
 10
6638.0970152257596055
 20
283.56027026933549
 30
0.0
 40
0.001
  1
VICE
  3

  2
TRADENAME
 70
     0
1001
ACDBATTR
1070
     0
1070
     1
  0
ATTDEF
  5
26A5D
  8
DEFPOINTS
 10
6638.0971410354159161
 20
283.5586037763812897
 30
0.0
 40
0.001
  1
BATHROOM SINK FAUCET
  3

  2
PRODUCT
 70
     0
1001
ACDBATTR
1070
     0
1070
     1
  0
LINE
  5
2F4F7
  8
0
 10
6637.5555448109553254
 20
277.0574408568180047
 30
0.0
 11
6637.5555448109553254
 21
281.3312143999527279
 31
0.0
  0
LINE
  5
2F4F8
  8
0
 10
6637.5840093000733759
 20
281.7293654084440959
 30
0.0
 11
6637.5840093000733759
 21
283.7322774776982897
 31
0.0
  0
LINE
  5
2F4F9
  8
0
 10
6630.9571196140414031
 20
283.1913445548026971
 30
0.0
 11
6630.9571196140414031
 21
283.923536553462327
 31
0.0
  0
LINE
  5
2F4FA
  8
0
 10
6631.0639827506165602
 20
283.0687413028546757
 30
0.0
 11
6631.0639827506165602
 21
284.0461398054102915
 31
0.0
  0
ARC
  5
2F4FB
  8
0
 10
6634.1067262081387526
 20
283.5574405541324836
 30
0.0
 40
1.125
 50
205.3764606780310942
 51
154.6235393219689058
  0
ARC
  5
2F4FC
  8
0
 10
6634.1067262081387526
 20
283.5574405541324836
 30
0.0
 40
0.7505107194597107
 50
219.9716509420806005
 51
140.0283490579193142
  0
ARC
  5
2F4FD
  8
0
 10
6634.1067262081387526
 20
283.5574405541324836
 30
0.0
 40
0.4999972133999988
 50
285.3613520719969188
 51
74.6386479280030812
  0
ARC
  5
2F4FE
  8
0
 10
6634.1067262081387526
 20
283.5574405541324836
 30
0.0
 40
0.4918894688999992
 50
334.2783508471894152
 51
25.7216491528106417
  0
LINE
  5
2F4FF
  8
0
 10
6631.0909610930611962
 20
284.0573780324825179
 30
0.0
 11
6632.7038230678299442
 21
284.0573780324825179
 31
0.0
  0
LINE
  5
2F500
  8
0
 10
6630.9682495563547491
 20
283.9504066111474003
 30
0.0
 11
6631.0640910353749859
 21
284.0462480901675804
 31
0.0
  0
LINE
  5
2F501
  8
0
 10
6631.0909610930611962
 20
283.0575030757825061
 30
0.0
 11
6632.7038230678299442
 21
283.0575030757825061
 31
0.0
  0
LINE
  5
2F502
  8
0
 10
6630.9682495563547491
 20
283.1644744971176237
 30
0.0
 11
6631.0640910353749859
 21
283.0686330180973869
 31
0.0
  0
ARC
  5
2F503
  8
0
 10
6630.9951196140400498
 20
283.923536553462327
 30
0.0
 40
0.038
 50
135.0000000000069065
 51
180.0
  0
ARC
  5
2F504
  8
0
 10
6631.0909610930611962
 20
284.019378032482507
 30
0.0
 40
0.038
 50
90.0
 51
135.0000000000046043
  0
ARC
  5
2F505
  8
0
 10
6630.9951196140400498
 20
283.1913445548026971
 30
0.0
 40
0.038
 50
180.0
 51
224.9999999999930935
  0
ARC
  5
2F506
  8
0
 10
6631.0909610930611962
 20
283.095503075782517
 30
0.0
 40
0.038
 50
224.9999999999930935
 51
270.0
  0
LINE
  5
2F507
  8
0
 10
6632.8799112112046714
 20
284.0395750227921781
 30
0.0
 11
6634.2391783411467259
 21
284.0395750227921781
 31
0.0
  0
ARC
  5
2F508
  8
0
 10
6632.6331030468491008
 20
282.414042158533789
 30
0.0
 40
1.644856867929307
 50
86.8454212905858753
 51
87.5358292779632166
  0
ARC
  5
2F509
  8
0
 10
6632.6911069611805942
 20
283.524511957619211
 30
0.0
 40
0.5328873733258888
 50
83.1414174616491835
 51
86.5020985979913064
  0
ARC
  5
2F50A
  8
0
 10
6635.2544645499456237
 20
301.4688525782715942
 30
0.0
 40
17.5937521560954089
 50
261.831774160046109
 51
261.9996510355480837
  0
ARC
  5
2F50B
  8
0
 10
6632.9133443793807601
 20
284.8158626975692869
 30
0.0
 40
0.7770072913076104
 50
262.0428535941641144
 51
267.5339085785329871
  0
LINE
  5
2F50C
  8
0
 10
6632.8799112112046714
 20
283.0753060854727892
 30
0.0
 11
6634.2391783411467259
 21
283.0753060854727892
 31
0.0
  0
ARC
  5
2F50D
  8
0
 10
6632.6331030468491008
 20
284.7008389497311782
 30
0.0
 40
1.644856867929307
 50
272.4641707220367834
 51
273.1545787094141247
  0
ARC
  5
2F50E
  8
0
 10
6632.6911069611805942
 20
283.5903691506456994
 30
0.0
 40
0.5328873733258888
 50
273.497901402008722
 51
276.8585825383507881
  0
ARC
  5
2F50F
  8
0
 10
6635.2544645499456237
 20
265.6460285299933162
 30
0.0
 40
17.5937521560954089
 50
98.0003489644518595
 51
98.168225839953891
  0
ARC
  5
2F510
  8
0
 10
6632.9133443793807601
 20
282.2990184106956804
 30
0.0
 40
0.7770072913076104
 50
92.4660914214669276
 51
97.9571464058358856
  0
LINE
  5
2F511
  8
0
 10
6634.5318576121189835
 20
283.7822403593324907
 30
0.0
 11
6633.7172643828007494
 21
283.7822403593324907
 31
0.0
  0
LINE
  5
2F512
  8
0
 10
6634.5318576121189835
 20
283.3326407489324765
 30
0.0
 11
6633.7172643828007494
 21
283.3326407489324765
 31
0.0
  0
ARC
  5
2F513
  8
0
 10
6634.5318576121189835
 20
283.7622403593325089
 30
0.0
 40
0.02
 50
25.721649152801831
 51
90.0
  0
ARC
  5
2F514
  8
0
 10
6634.5318576121189835
 20
283.3526407489324015
 30
0.0
 40
0.02
 50
270.0
 51
334.2783508471923142
  0
ARC
  5
2F515
  8
0
 10
6634.518941717303278
 20
283.803053305400681
 30
0.0
 40
0.0202585240364077
 50
300.2628323342296994
 51
24.9111901791713208
  0
LINE
  5
2F516
  8
0
 10
6634.5291513536931234
 20
283.7855555592341261
 30
0.0
 11
6634.523471765341128
 21
283.7822403593324907
 31
0.0
  0
ARC
  5
2F517
  8
0
 10
6634.518941717303278
 20
283.3118278028642862
 30
0.0
 40
0.0202585240364077
 50
335.0888098208287147
 51
59.7371676657703432
  0
LINE
  5
2F518
  8
0
 10
6634.5291513536931234
 20
283.3293255490307843
 30
0.0
 11
6634.523471765341128
 21
283.3326407489324765
 31
0.0
  0
ARC
  5
2F519
  8
0
 10
6634.4065977106401988
 20
283.5573851884324768
 30
0.0
 40
0.8463451015001494
 50
173.6765276503022903
 51
179.9962518588014007
  0
ARC
  5
2F51A
  8
0
 10
6633.7054181509211048
 20
283.6350868988952243
 30
0.0
 40
0.1408733935084312
 50
134.7519932164607042
 51
173.6765276503022903
  0
ARC
  5
2F51B
  8
0
 10
6633.7207643410920355
 20
283.6196072772880825
 30
0.0
 40
0.1626707382515493
 50
91.2328481182845366
 51
134.7519932164607042
  0
ARC
  5
2F51C
  8
0
 10
6634.4065977106401988
 20
283.5574959198324905
 30
0.0
 40
0.8463451015001494
 50
180.0037481411985993
 51
186.3234723496977097
  0
ARC
  5
2F51D
  8
0
 10
6633.7054181509211048
 20
283.4797942093696861
 30
0.0
 40
0.1408733935084312
 50
186.3234723496977097
 51
225.2480067835392958
  0
ARC
  5
2F51E
  8
0
 10
6633.7207643410920355
 20
283.4952738309768847
 30
0.0
 40
0.1626707382515493
 50
225.2480067835392958
 51
268.7671518817155061
  0
LINE
  5
2F51F
  8
0
 10
6634.591573654345666
 20
283.640375489608914
 30
0.0
 11
6634.5994007888320994
 21
283.6426988144233974
 31
0.0
  0
LINE
  5
2F520
  8
0
 10
6634.591573654345666
 20
283.4745056186561101
 30
0.0
 11
6634.5994007888320994
 21
283.4721822938416267
 31
0.0
  0
ARC
  5
2F521
  8
0
 10
6638.1067259133396874
 20
283.5574405541324836
 30
0.0
 40
1.125
 50
297.6867311693409874
 51
242.3132688306590126
  0
ARC
  5
2F522
  8
0
 10
6638.1067259133396874
 20
283.5574405541324836
 30
0.0
 40
1.0948554194613751
 50
298.5176728715672994
 51
241.4823271284327006
  0
ARC
  5
2F523
  8
0
 10
6638.1067259133396874
 20
283.5574405541324836
 30
0.0
 40
0.7505106484539938
 50
314.1453735150716966
 51
225.8546264849260012
  0
ARC
  5
2F524
  8
0
 10
6638.1067259133396874
 20
283.5574405541324836
 30
0.0
 40
0.7042570420594468
 50
317.921228757281483
 51
222.0787712427184886
  0
ARC
  5
2F525
  8
0
 10
6638.1067259133396874
 20
283.5574405541324836
 30
0.0
 40
0.5511811023855789
 50
341.5060733268667263
 51
198.4939266731394127
  0
ARC
  5
2F526
  8
0
 10
6639.8966322098485762
 20
281.2612626691500282
 30
0.0
 40
2.3421322451783348
 50
176.9200600900304039
 51
178.288510372631805
  0
ARC
  5
2F527
  8
0
 10
6639.9646604345898595
 20
281.2263410377910873
 30
0.0
 40
2.4121405135082088
 50
174.3311928585434885
 51
176.1785610373974009
  0
ARC
  5
2F528
  8
0
 10
6627.8599984166730792
 20
282.4601641422805187
 30
0.0
 40
9.7552510327552451
 50
354.1425725365249946
 51
354.9612982245675994
  0
ARC
  5
2F529
  8
0
 10
6635.6028043925471138
 20
281.7677562898294923
 30
0.0
 40
1.9815768330752279
 50
355.2415390674200921
 51
358.8898875549161858
  0
ARC
  5
2F52A
  8
0
 10
6638.1067259133396874
 20
277.0574408568180047
 30
0.0
 40
0.5511811023855789
 50
180.0
 51
0.0
  0
LINE
  5
2F52B
  8
0
 10
6637.8480746442401141
 20
284.0267270244416977
 30
0.0
 11
6637.8480746442401141
 21
282.7711658599675957
 31
0.0
  0
LINE
  5
2F52C
  8
0
 10
6637.8468060064424208
 20
284.0205311810640865
 30
0.0
 11
6637.8480746442401141
 21
284.0183338360325251
 31
0.0
  0
ARC
  5
2F52D
  8
0
 10
6637.8294854985442726
 20
284.0105311807574253
 30
0.0
 40
0.02
 50
30.0000010149104916
 51
121.4619356437213042
  0
ARC
  5
2F52E
  8
0
 10
6638.1067259133396874
 20
283.5574405541324836
 30
0.0
 40
0.5464828766999972
 50
63.0448109406677588
 51
116.9551890593321986
  0
ARC
  5
2F52F
  8
0
 10
6637.8680746442396412
 20
284.0267270244416977
 30
0.0
 40
0.02
 50
116.9551890592142058
 51
180.0000000000391083
  0
ARC
  5
2F530
  8
0
 10
6638.0286080963333006
 20
282.7841293557734161
 30
0.0
 40
0.1809982860357515
 50
184.1071664609339109
 51
200.9050730283385917
  0
ARC
  5
2F531
  8
0
 10
6638.0033586667859709
 20
282.7752721984671211
 30
0.0
 40
0.1542522894520077
 50
201.1782337280201034
 51
217.8765093875747141
  0
ARC
  5
2F532
  8
0
 10
6638.0058171341297566
 20
282.7771844448068919
 30
0.0
 40
0.1573668917935013
 50
217.8765093875747141
 51
236.9326126480411006
  0
ARC
  5
2F533
  8
0
 10
6637.9980053402296107
 20
282.7651862545047834
 30
0.0
 40
0.143049744924621
 50
236.9326126480411006
 51
261.845262634943083
  0
ARC
  5
2F534
  8
0
 10
6638.1006407470549675
 20
283.4814342565879883
 30
0.0
 40
0.8666139972355118
 50
261.845262634943083
 51
265.7877563681872743
  0
ARC
  5
2F535
  8
0
 10
6638.1074411436766241
 20
283.5737679006965095
 30
0.0
 40
0.9591977281420785
 50
265.7877563681872743
 51
269.957277126201177
  0
ARC
  5
2F536
  8
0
 10
6638.1061746956038405
 20
283.5063811310312758
 30
0.0
 40
0.9036478144572537
 50
262.0886189882454005
 51
270.0349499565970746
  0
ARC
  5
2F537
  8
0
 10
6638.0087507817952428
 20
282.7665653083585084
 30
0.0
 40
0.1575541684361896
 50
191.4896757487823891
 51
260.1490220984533721
  0
LINE
  5
2F538
  8
0
 10
6638.6579070157249589
 20
277.0574408568180047
 30
0.0
 11
6638.6579070157249589
 21
281.3312143999527279
 31
0.0
  0
LINE
  5
2F539
  8
0
 10
6638.6294425266069084
 20
281.7293654084440959
 30
0.0
 11
6638.6294425266069084
 21
283.7322774776982897
 31
0.0
  0
ARC
  5
2F53A
  8
0
 10
6636.3168196168317081
 20
281.2612626691500282
 30
0.0
 40
2.3421322451783348
 50
1.711489627368139
 51
3.0799399099696081
  0
ARC
  5
2F53B
  8
0
 10
6636.2487913920904248
 20
281.2263410377910873
 30
0.0
 40
2.4121405135082088
 50
3.821438962602588
 51
5.6688071414564654
  0
ARC
  5
2F53C
  8
0
 10
6648.3534534100072051
 20
282.4601641422805187
 30
0.0
 40
9.7552510327552451
 50
185.0387017754324006
 51
185.8574274634750054
  0
ARC
  5
2F53D
  8
0
 10
6640.6106474341331705
 20
281.7677562898294923
 30
0.0
 40
1.9815768330752279
 50
181.1101124450837858
 51
184.758460932576611
  0
LINE
  5
2F53E
  8
0
 10
6638.3653771824401701
 20
284.0267270244416977
 30
0.0
 11
6638.3653771824401701
 21
282.7711658599675957
 31
0.0
  0
LINE
  5
2F53F
  8
0
 10
6638.3666458202378635
 20
284.0205311810640865
 30
0.0
 11
6638.3653771824401701
 21
284.0183338360325251
 31
0.0
  0
ARC
  5
2F540
  8
0
 10
6638.3839663281360117
 20
284.0105311807574253
 30
0.0
 40
0.02
 50
58.5380643562787171
 51
149.9999989850894906
  0
ARC
  5
2F541
  8
0
 10
6638.3453771824388241
 20
284.0267270244416977
 30
0.0
 40
0.02
 50
359.9999999999575948
 51
63.0448109407857586
  0
ARC
  5
2F542
  8
0
 10
6638.1848437303469836
 20
282.7841293557734161
 30
0.0
 40
0.1809982860357515
 50
339.0949269716613799
 51
355.8928335390659754
  0
ARC
  5
2F543
  8
0
 10
6638.2100931598943134
 20
282.7752721984671211
 30
0.0
 40
0.1542522894520077
 50
322.1234906124253143
 51
338.821766271979925
  0
ARC
  5
2F544
  8
0
 10
6638.2076346925496182
 20
282.7771844448068919
 30
0.0
 40
0.1573668917935013
 50
303.0673873519589847
 51
322.1234906124253143
  0
ARC
  5
2F545
  8
0
 10
6638.2154464864497641
 20
282.7651862545047834
 30
0.0
 40
0.143049744924621
 50
278.1547373650568034
 51
303.0673873519589847
  0
ARC
  5
2F546
  8
0
 10
6638.1128110796262263
 20
283.4814342565879883
 30
0.0
 40
0.8666139972355118
 50
274.2122436318127257
 51
278.1547373650568034
  0
ARC
  5
2F547
  8
0
 10
6638.1060106830027507
 20
283.5737679006965095
 30
0.0
 40
0.9591977281420785
 50
270.042722873798823
 51
274.2122436318127257
  0
ARC
  5
2F548
  8
0
 10
6638.1072771310764438
 20
283.5063811310312758
 30
0.0
 40
0.9036478144572537
 50
269.9650500434029254
 51
277.9113810117549974
  0
ARC
  5
2F549
  8
0
 10
6638.204701044885951
 20
282.7665653083585084
 30
0.0
 40
0.1575541684361896
 50
279.8509779015466279
 51
348.5103242512176962
  0
CIRCLE
  5
2F54A
  8
0
 10
6633.8312567500388468
 20
283.5574405541324836
 30
0.0
 40
0.1100181803721543
  0
CIRCLE
  5
2F54B
  8
0
 10
6638.1067259133396874
 20
282.9535365541324836
 30
0.0
 40
0.1099999999999994
  0
LINE
  5
2F54C
  8
0
 10
6645.2563322126388812
 20
283.1913445548026971
 30
0.0
 11
6645.2563322126388812
 21
283.923536553462327
 31
0.0
  0
LINE
  5
2F54D
  8
0
 10
6645.1494690760628146
 20
283.0687413028546757
 30
0.0
 11
6645.1494690760628146
 21
284.0461398054102915
 31
0.0
  0
ARC
  5
2F54E
  8
0
 10
6642.1067256185388032
 20
283.5574405541324836
 30
0.0
 40
1.125
 50
25.3764606780310906
 51
334.6235393219689058
  0
ARC
  5
2F54F
  8
0
 10
6642.1067256185388032
 20
283.5574405541324836
 30
0.0
 40
0.7505107194597107
 50
39.9716509420806787
 51
320.0283490579192858
  0
ARC
  5
2F550
  8
0
 10
6642.1067256185388032
 20
283.5574405541324836
 30
0.0
 40
0.4999972133999988
 50
105.3613520719969046
 51
254.638647928002996
  0
ARC
  5
2F551
  8
0
 10
6642.1067256185388032
 20
283.5574405541324836
 30
0.0
 40
0.4918894688999992
 50
154.2783508471893867
 51
205.7216491528106133
  0
LINE
  5
2F552
  8
0
 10
6645.1224907336190881
 20
284.0573780324825179
 30
0.0
 11
6643.5096287588512496
 21
284.0573780324825179
 31
0.0
  0
LINE
  5
2F553
  8
0
 10
6645.2452022703246257
 20
283.9504066111474003
 30
0.0
 11
6645.1493607913052983
 21
284.0462480901675804
 31
0.0
  0
LINE
  5
2F554
  8
0
 10
6645.1224907336190881
 20
283.0575030757825061
 30
0.0
 11
6643.5096287588512496
 21
283.0575030757825061
 31
0.0
  0
LINE
  5
2F555
  8
0
 10
6645.2452022703246257
 20
283.1644744971176237
 30
0.0
 11
6645.1493607913052983
 21
283.0686330180973869
 31
0.0
  0
ARC
  5
2F556
  8
0
 10
6645.2183322126402345
 20
283.923536553462327
 30
0.0
 40
0.038
 50
0.0
 51
44.9999999999930935
  0
ARC
  5
2F557
  8
0
 10
6645.1224907336190881
 20
284.019378032482507
 30
0.0
 40
0.038
 50
44.9999999999953886
 51
90.0
  0
ARC
  5
2F558
  8
0
 10
6645.2183322126402345
 20
283.1913445548026971
 30
0.0
 40
0.038
 50
315.0000000000069917
 51
0.0
  0
ARC
  5
2F559
  8
0
 10
6645.1224907336190881
 20
283.095503075782517
 30
0.0
 40
0.038
 50
270.0
 51
315.0000000000069917
  0
LINE
  5
2F55A
  8
0
 10
6643.3335406154756129
 20
284.0395750227921781
 30
0.0
 11
6641.9742734855335584
 21
284.0395750227921781
 31
0.0
  0
ARC
  5
2F55B
  8
0
 10
6643.5803487798311835
 20
282.414042158533789
 30
0.0
 40
1.644856867929307
 50
92.4641707220367977
 51
93.1545787094141247
  0
ARC
  5
2F55C
  8
0
 10
6643.5223448654987806
 20
283.524511957619211
 30
0.0
 40
0.5328873733258888
 50
93.4979014020087078
 51
96.8585825383508023
  0
ARC
  5
2F55D
  8
0
 10
6640.9589872767337511
 20
301.4688525782715942
 30
0.0
 40
17.5937521560954089
 50
278.0003489644518027
 51
278.168225839953891
  0
ARC
  5
2F55E
  8
0
 10
6643.3001074472986147
 20
284.8158626975692869
 30
0.0
 40
0.7770072913076104
 50
272.4660914214670129
 51
277.9571464058357719
  0
LINE
  5
2F55F
  8
0
 10
6643.3335406154756129
 20
283.0753060854727892
 30
0.0
 11
6641.9742734855335584
 21
283.0753060854727892
 31
0.0
  0
ARC
  5
2F560
  8
0
 10
6643.5803487798311835
 20
284.7008389497311782
 30
0.0
 40
1.644856867929307
 50
266.8454212905858753
 51
267.5358292779632166
  0
ARC
  5
2F561
  8
0
 10
6643.5223448654987806
 20
283.5903691506456994
 30
0.0
 40
0.5328873733258888
 50
263.1414174616492119
 51
266.502098597991278
  0
ARC
  5
2F562
  8
0
 10
6640.9589872767337511
 20
265.6460285299933162
 30
0.0
 40
17.5937521560954089
 50
81.8317741600461233
 51
81.9996510355481547
  0
ARC
  5
2F563
  8
0
 10
6643.3001074472986147
 20
282.2990184106956804
 30
0.0
 40
0.7770072913076104
 50
82.0428535941641286
 51
87.5339085785330724
  0
LINE
  5
2F564
  8
0
 10
6641.6815942145622103
 20
283.7822403593324907
 30
0.0
 11
6642.4961874438786253
 21
283.7822403593324907
 31
0.0
  0
LINE
  5
2F565
  8
0
 10
6641.6815942145622103
 20
283.3326407489324765
 30
0.0
 11
6642.4961874438786253
 21
283.3326407489324765
 31
0.0
  0
ARC
  5
2F566
  8
0
 10
6641.6815942145622103
 20
283.7622403593325089
 30
0.0
 40
0.02
 50
90.0
 51
154.2783508471981122
  0
ARC
  5
2F567
  8
0
 10
6641.6815942145622103
 20
283.3526407489324015
 30
0.0
 40
0.02
 50
205.7216491528076858
 51
270.0
  0
ARC
  5
2F568
  8
0
 10
6641.6945101093760968
 20
283.803053305400681
 30
0.0
 40
0.0202585240364077
 50
155.0888098208286863
 51
239.7371676657703858
  0
LINE
  5
2F569
  8
0
 10
6641.6843004729871609
 20
283.7855555592341261
 30
0.0
 11
6641.6899800613400657
 21
283.7822403593324907
 31
0.0
  0
ARC
  5
2F56A
  8
0
 10
6641.6945101093760968
 20
283.3118278028642862
 30
0.0
 40
0.0202585240364077
 50
120.2628323342296
 51
204.9111901791713137
  0
LINE
  5
2F56B
  8
0
 10
6641.6843004729871609
 20
283.3293255490307843
 30
0.0
 11
6641.6899800613400657
 21
283.3326407489324765
 31
0.0
  0
ARC
  5
2F56C
  8
0
 10
6641.8068541160400855
 20
283.5573851884324768
 30
0.0
 40
0.8463451015001494
 50
0.0037481411986016
 51
6.3234723496977061
  0
ARC
  5
2F56D
  8
0
 10
6642.5080336757591795
 20
283.6350868988952243
 30
0.0
 40
0.1408733935084312
 50
6.3234723496977061
 51
45.24800678353931
  0
ARC
  5
2F56E
  8
0
 10
6642.4926874855891583
 20
283.6196072772880825
 30
0.0
 40
0.1626707382515493
 50
45.24800678353931
 51
88.7671518817154634
  0
ARC
  5
2F56F
  8
0
 10
6641.8068541160400855
 20
283.5574959198324905
 30
0.0
 40
0.8463451015001494
 50
353.6765276503023188
 51
359.9962518588013722
  0
ARC
  5
2F570
  8
0
 10
6642.5080336757591795
 20
283.4797942093696861
 30
0.0
 40
0.1408733935084312
 50
314.7519932164606757
 51
353.6765276503023188
  0
ARC
  5
2F571
  8
0
 10
6642.4926874855891583
 20
283.4952738309768847
 30
0.0
 40
0.1626707382515493
 50
271.2328481182844939
 51
314.7519932164606757
  0
LINE
  5
2F572
  8
0
 10
6641.6218781723337088
 20
283.640375489608914
 30
0.0
 11
6641.6140510378481849
 21
283.6426988144233974
 31
0.0
  0
LINE
  5
2F573
  8
0
 10
6641.6218781723337088
 20
283.4745056186561101
 30
0.0
 11
6641.6140510378481849
 21
283.4721822938416267
 31
0.0
  0
CIRCLE
  5
2F574
  8
0
 10
6642.3821950766414375
 20
283.5574405541324836
 30
0.0
 40
0.1100181803721543
  0
CIRCLE
  5
2F684
  8
0
 10
6633.8312567500388468
 20
283.5574405541324836
 30
0.0
 40
0.0468053359000005
  0
CIRCLE
  5
2F685
  8
0
 10
6638.1067259133396874
 20
282.9535365541324836
 30
0.0
 40
0.0468053359000005
  0
CIRCLE
  5
2F686
  8
0
 10
6642.3821950766414375
 20
283.5574405541324836
 30
0.0
 40
0.0468053359000005
  0
ENDSEC
  0
EOF
