  0
SECTION
  2
HEADER
  9
$ACADVER
  1
AC1009
  9
$INSBASE
 10
6641.2073279230426124
 20
287.3229385958421176
 30
0.0
  9
$EXTMIN
 10
6633.7534393403329886
 20
287.3073679243663037
 30
-0.0015258207003583
  9
$EXTMAX
 10
6648.4639938815998903
 20
294.866548464664902
 30
0.0000000349246037
  9
$LIMMIN
 10
0.0
 20
0.0
  9
$LIMMAX
 10
11.6929133858000007
 20
8.2677165353999982
  9
$ORTHOMODE
 70
     0
  9
$REGENMODE
 70
     1
  9
$FILLMODE
 70
     1
  9
$QTEXTMODE
 70
     0
  9
$MIRRTEXT
 70
     0
  9
$DRAGMODE
 70
     2
  9
$LTSCALE
 40
0.6431102362
  9
$OSMODE
 70
  4095
  9
$ATTMODE
 70
     1
  9
$TEXTSIZE
 40
0.2
  9
$TRACEWID
 40
0.05
  9
$TEXTSTYLE
  7
STANDARD
  9
$CLAYER
  8
0
  9
$CELTYPE
  6
BYLAYER
  9
$CECOLOR
 62
   256
  9
$DIMSCALE
 40
1.0
  9
$DIMASZ
 40
0.1875
  9
$DIMEXO
 40
0.0625
  9
$DIMDLI
 40
0.4443307087
  9
$DIMRND
 40
0.0
  9
$DIMDLE
 40
0.0
  9
$DIMEXE
 40
0.125
  9
$DIMTP
 40
0.01
  9
$DIMTM
 40
0.01
  9
$DIMTXT
 40
2.0
  9
$DIMCEN
 40
0.1052362205
  9
$DIMTSZ
 40
0.0
  9
$DIMTOL
 70
     1
  9
$DIMLIM
 70
     0
  9
$DIMTIH
 70
     1
  9
$DIMTOH
 70
     1
  9
$DIMSE1
 70
     0
  9
$DIMSE2
 70
     0
  9
$DIMTAD
 70
     0
  9
$DIMZIN
 70
     0
  9
$DIMBLK
  1

  9
$DIMASO
 70
     1
  9
$DIMSHO
 70
     1
  9
$DIMPOST
  1
\X
  9
$DIMAPOST
  1

  9
$DIMALT
 70
     1
  9
$DIMALTD
 70
     2
  9
$DIMALTF
 40
25.3999999999999986
  9
$DIMLFAC
 40
1.0
  9
$DIMTOFL
 70
     0
  9
$DIMTVP
 40
0.0
  9
$DIMTIX
 70
     0
  9
$DIMSOXD
 70
     0
  9
$DIMSAH
 70
     0
  9
$DIMBLK1
  1

  9
$DIMBLK2
  1

  9
$DIMSTYLE
  2
STANDARD
  9
$DIMCLRD
 70
     0
  9
$DIMCLRE
 70
     0
  9
$DIMCLRT
 70
     0
  9
$DIMTFAC
 40
1.0
  9
$DIMGAP
 40
0.09
  9
$LUNITS
 70
     2
  9
$LUPREC
 70
     4
  9
$SKETCHINC
 40
0.1
  9
$FILLETRAD
 40
0.0
  9
$AUNITS
 70
     0
  9
$AUPREC
 70
     0
  9
$MENU
  1
.
  9
$ELEVATION
 40
0.0
  9
$PELEVATION
 40
0.0
  9
$THICKNESS
 40
0.0
  9
$LIMCHECK
 70
     0
  9
$BLIPMODE
 70
     0
  9
$CHAMFERA
 40
0.0
  9
$CHAMFERB
 40
0.0
  9
$SKPOLY
 70
     0
  9
$TDCREATE
 40
2458060.468368056230247
  9
$TDUPDATE
 40
2460693.4851388889364898
  9
$TDINDWG
 40
0.8559677083
  9
$TDUSRTIMER
 40
0.8559677083
  9
$USRTIMER
 70
     1
  9
$ANGBASE
 50
0.0
  9
$ANGDIR
 70
     0
  9
$PDMODE
 70
     0
  9
$PDSIZE
 40
0.3125
  9
$PLINEWID
 40
0.0
  9
$COORDS
 70
     2
  9
$SPLFRAME
 70
     0
  9
$SPLINETYPE
 70
     6
  9
$SPLINESEGS
 70
     8
  9
$ATTDIA
 70
     1
  9
$ATTREQ
 70
     1
  9
$HANDLING
 70
     1
  9
$HANDSEED
  5
2FC99
  9
$SURFTAB1
 70
     6
  9
$SURFTAB2
 70
     6
  9
$SURFTYPE
 70
     6
  9
$SURFU
 70
     6
  9
$SURFV
 70
     6
  9
$UCSNAME
  2

  9
$UCSORG
 10
0.0
 20
0.0
 30
0.0
  9
$UCSXDIR
 10
1.0
 20
0.0
 30
0.0
  9
$UCSYDIR
 10
0.0
 20
1.0
 30
0.0
  9
$PUCSNAME
  2

  9
$PUCSORG
 10
0.0
 20
0.0
 30
0.0
  9
$PUCSXDIR
 10
1.0
 20
0.0
 30
0.0
  9
$PUCSYDIR
 10
0.0
 20
1.0
 30
0.0
  9
$USERI1
 70
     0
  9
$USERI2
 70
     0
  9
$USERI3
 70
     0
  9
$USERI4
 70
     0
  9
$USERI5
 70
     0
  9
$USERR1
 40
0.0
  9
$USERR2
 40
0.0
  9
$USERR3
 40
0.0
  9
$USERR4
 40
0.0
  9
$USERR5
 40
0.0
  9
$WORLDVIEW
 70
     1
  9
$SHADEDGE
 70
     3
  9
$SHADEDIF
 70
    70
  9
$TILEMODE
 70
     1
  9
$MAXACTVP
 70
    64
  9
$PLIMCHECK
 70
     0
  9
$PEXTMIN
 10
1.0000000000000000E+20
 20
1.0000000000000000E+20
 30
1.0000000000000000E+20
  9
$PEXTMAX
 10
-1.0000000000000000E+20
 20
-1.0000000000000000E+20
 30
-1.0000000000000000E+20
  9
$PLIMMIN
 10
0.0
 20
0.0
  9
$PLIMMAX
 10
12.0
 20
9.0
  9
$UNITMODE
 70
     0
  9
$VISRETAIN
 70
     1
  9
$PLINEGEN
 70
     0
  9
$PSLTSCALE
 70
     1
  0
ENDSEC
  0
SECTION
  2
TABLES
  0
TABLE
  2
VPORT
 70
     1
  0
VPORT
  2
*ACTIVE
 70
     0
 10
0.0
 20
0.0
 11
1.0
 21
1.0
 12
2729.7433601656539395
 22
158.5073530919765119
 13
0.0
 23
0.0
 14
1.0
 24
1.0
 15
0.0
 25
0.0
 16
0.0
 26
0.0
 36
60.4960186965801583
 17
3911.3653564453120453
 27
132.5796051025390057
 37
0.0
 40
7.6127917498042734
 41
2.21775147928994
 42
50.0
 43
0.0
 44
0.0
 50
0.0
 51
0.0
 71
     0
 72
   100
 73
     1
 74
     1
 75
     0
 76
     0
 77
     0
 78
     0
  0
ENDTAB
  0
TABLE
  2
LTYPE
 70
     2
  0
LTYPE
  2
CONTINUOUS
 70
     0
  3
Solid line
 72
    65
 73
     0
 40
0.0
  0
LTYPE
  2
PHANTOM2
 70
     0
  3
___ _ _ ___ _ _ ___ _ _ ___ _ _
 72
    65
 73
     6
 40
1.25
 49
0.625
 49
-0.125
 49
0.125
 49
-0.125
 49
0.125
 49
-0.125
  0
ENDTAB
  0
TABLE
  2
LAYER
 70
     2
  0
LAYER
  2
0
 70
     0
 62
   255
  6
CONTINUOUS
  0
LAYER
  2
DEFPOINTS
 70
     0
 62
     7
  6
CONTINUOUS
  0
ENDTAB
  0
TABLE
  2
STYLE
 70
     1
  0
STYLE
  2
STANDARD
 70
     0
 40
0.0
 41
0.8
 50
0.0
 71
     0
 42
0.2
  3
txt
  4

  0
ENDTAB
  0
TABLE
  2
VIEW
 70
     0
  0
ENDTAB
  0
TABLE
  2
UCS
 70
     0
  0
ENDTAB
  0
TABLE
  2
APPID
 70
    11
  0
APPID
  2
ACAD
 70
     0
  0
APPID
  2
ACAD_MLEADERVER
 70
     0
  0
APPID
  2
ACAD_EXEMPT_FROM_CAD_STANDARDS
 70
     0
  0
APPID
  2
ACAD_NAV_VCDISPLAY
 70
     0
  0
APPID
  2
ACAECLAYERSTANDARD
 70
     0
  0
APPID
  2
ACCMTRANSPARENCY
 70
     0
  0
APPID
  2
ACAD_DSTYLE_DIMJAG
 70
     0
  0
APPID
  2
ACAD_DSTYLE_DIMTALN
 70
     0
  0
APPID
  2
ACDBATTR
 70
     0
  0
APPID
  2
ACADANNOTATIVE
 70
     0
  0
APPID
  2
DCO15
 70
     0
  0
ENDTAB
  0
TABLE
  2
DIMSTYLE
 70
     1
  0
DIMSTYLE
  2
STANDARD
 70
     0
  3

  4

  5

  6

  7

 40
1.0
 41
0.1875
 42
0.0625
 43
0.38
 44
0.125
 45
0.0
 46
0.0
 47
0.01
 48
0.01
140
0.15625
141
0.09
142
0.0
143
25.3999999999999986
144
1.0
145
0.0
146
1.0
147
0.09
 71
     1
 72
     0
 73
     1
 74
     1
 75
     0
 76
     0
 77
     0
 78
     4
170
     0
171
     2
172
     0
173
     0
174
     0
175
     0
176
     0
177
     0
178
     0
  0
ENDTAB
  0
ENDSEC
  0
SECTION
  2
BLOCKS
  0
BLOCK
  8
0
  2
$MODEL_SPACE
 70
     0
 10
0.0
 20
0.0
 30
0.0
  3
$MODEL_SPACE
  1

  0
ENDBLK
  5
21
  8
0
  0
BLOCK
 67
     1
  8
0
  2
$PAPER_SPACE
 70
     0
 10
0.0
 20
0.0
 30
0.0
  3
$PAPER_SPACE
  1

  0
ENDBLK
  5
1D
 67
     1
  8
0
  0
BLOCK
  8
0
  2
_FILLED
 70
     0
 10
0.0
 20
0.0
 30
0.0
  3
_FILLED
  1

  0
SOLID
  5
2EA64
  8
0
  6
BYBLOCK
 62
     0
 10
0.0
 20
0.0
 30
0.0
 11
-1.0
 21
0.1666666667
 31
0.0
 12
-1.0
 22
-0.1666666667
 32
0.0
 13
-1.0
 23
-0.1666666667
 33
0.0
  0
ENDBLK
  5
2EA65
  8
0
  6
BYBLOCK
 62
     0
  0
ENDSEC
  0
SECTION
  2
ENTITIES
  0
ATTDEF
  5
26A5B
  8
DEFPOINTS
 10
6641.2070227799513304
 20
287.3211306714375155
 30
0.0
 40
0.001
  1
P34582-BN
  3

  2
MODELNUMBER
 70
     0
1001
ACDBATTR
1070
     0
1070
     1
  0
ATTDEF
  5
26A5C
  8
DEFPOINTS
 10
6641.2068969702941104
 20
287.3194638310582718
 30
0.0
 40
0.001
  1
VICE
  3

  2
TRADENAME
 70
     0
1001
ACDBATTR
1070
     0
1070
     1
  0
ATTDEF
  5
26A5D
  8
DEFPOINTS
 10
6641.2070227799513304
 20
287.3177973381041284
 30
0.0
 40
0.001
  1
BATHROOM SINK FAUCET
  3

  2
PRODUCT
 70
     0
1001
ACDBATTR
1070
     0
1070
     1
  0
LINE
  5
2F77C
  8
0
 10
6637.207328217844406
 20
289.120953718642113
 30
0.0
 11
6637.207328217844406
 21
287.6661505690420881
 31
0.0
  0
LINE
  5
2F77D
  8
0
 10
6641.6419404829475752
 20
293.1499464430419835
 30
0.0
 11
6640.7727153631376495
 21
293.1499464430419835
 31
0.0
  0
LINE
  5
2F77E
  8
0
 10
6641.7467932966901571
 20
293.2382307142895002
 30
0.0
 11
6640.6678625493959771
 21
293.2382307142895002
 31
0.0
  0
LINE
  5
2F77F
  8
0
 10
6637.9115852600480139
 20
287.6561505690419835
 30
0.0
 11
6636.5030711756380697
 21
287.6561505690419835
 31
0.0
  0
LINE
  5
2F780
  8
0
 10
6642.3323279230426124
 20
287.3229385958421176
 30
0.0
 11
6640.0823279230417029
 21
287.3229385958421176
 31
0.0
  0
LINE
  5
2F781
  8
0
 10
6638.3021836514753886
 20
287.5674222436554146
 30
0.0
 11
6636.112472784208876
 21
287.5674222436554146
 31
0.0
  0
LINE
  5
2F782
  8
0
 10
6637.097328217842005
 20
289.2309537186421267
 30
0.0
 11
6635.8710450514163313
 21
289.2309537186421267
 31
0.0
  0
ARC
  5
2F783
  8
0
 10
6635.8791102317682089
 20
289.1279537186420043
 30
0.0
 40
0.103
 50
90.0
 51
135.0000000000046043
  0
LINE
  5
2F784
  8
0
 10
6636.6283825599939519
 20
289.7309537186421267
 30
0.0
 11
6634.1917376607343613
 21
289.7309537186421267
 31
0.0
  0
LINE
  5
2F785
  8
0
 10
6640.0823279230417029
 20
287.5091248988961752
 30
0.0
 11
6640.0823279230417029
 21
287.3229385958421176
 31
0.0
  0
LINE
  5
2F786
  8
0
 10
6640.4568172745875927
 20
287.6306407827299836
 30
0.0
 11
6640.1124725035806478
 21
287.547422381980482
 31
0.0
  0
LINE
  5
2F787
  8
0
 10
6640.5030708809827047
 20
287.6361505690421154
 30
0.0
 11
6641.9115849651016106
 21
287.6361505690421154
 31
0.0
  0
ARC
  5
2F788
  8
0
 10
6640.5030708809827047
 20
287.4392505690420876
 30
0.0
 40
0.1969
 50
90.0
 51
103.5862659710365961
  0
ARC
  5
2F789
  8
0
 10
6640.1217279230422719
 20
287.5091248988961752
 30
0.0
 40
0.0394
 50
103.5862659710365961
 51
180.0
  0
LINE
  5
2F78A
  8
0
 10
6640.6561468206573409
 20
287.6361505690421154
 30
0.0
 11
6640.6561468206573409
 21
292.098731869354026
 31
0.0
  0
LINE
  5
2F78B
  8
0
 10
6640.6561468206573409
 20
293.2665149855225764
 30
0.0
 11
6640.6561468206573409
 21
294.3129385690564845
 31
0.0
  0
LINE
  5
2F78C
  8
0
 10
6635.3101142363930194
 20
288.7309537186421267
 30
0.0
 11
6634.1917376607343613
 21
288.7309537186421267
 31
0.0
  0
ARC
  5
2F78D
  8
0
 10
6635.3101142363930194
 20
288.7774537186419934
 30
0.0
 40
0.0465
 50
270.0
 51
315.0000000000046043
  0
LINE
  5
2F78E
  8
0
 10
6640.7444310918899646
 20
293.1616621717946032
 30
0.0
 11
6640.6678625494096195
 21
293.2382307142751188
 31
0.0
  0
ARC
  5
2F78F
  8
0
 10
6640.7727153631376495
 20
293.1899464430421176
 30
0.0
 40
0.04
 50
224.9999999999930935
 51
270.0
  0
ARC
  5
2F790
  8
0
 10
6640.696146820658214
 20
293.2665149855225764
 30
0.0
 40
0.04
 50
179.9999999999967031
 51
224.9999999999976978
  0
ARC
  5
2F791
  8
0
 10
6641.2073279230426124
 20
294.3129385690564845
 30
0.0
 40
0.5511811023855789
 50
0.0
 51
180.0
  0
LINE
  5
2F792
  8
0
 10
6640.6846113097763009
 20
293.2214819539087785
 30
0.0
 11
6640.6846113097763009
 21
292.4585744364820812
 31
0.0
  0
ARC
  5
2F793
  8
0
 10
6636.1990819286656915
 20
292.7076417141122988
 30
0.0
 40
4.4924390187932994
 50
353.6778686935815017
 51
356.8218100320992221
  0
ARC
  5
2F794
  8
0
 10
6642.1909802897043846
 20
292.0478950370688835
 30
0.0
 40
1.5356751483395941
 50
173.8301990883811072
 51
178.1029398078703139
  0
LINE
  5
2F795
  8
0
 10
6640.9617242686981626
 20
291.7730369983127048
 30
0.0
 11
6640.9409111795339413
 21
293.1499464430419835
 31
0.0
  0
LINE
  5
2F796
  8
0
 10
6641.0715615398639784
 20
291.6692573585419836
 30
0.0
 11
6641.3430943062194274
 21
291.6692573585419836
 31
0.0
  0
LINE
  5
2F797
  8
0
 10
6641.0341785710397744
 20
291.6866893231908193
 30
0.0
 11
6640.9617242686981626
 21
291.7730369983127048
 31
0.0
  0
ARC
  5
2F798
  8
0
 10
6641.0715615398639784
 20
291.7180573585421257
 30
0.0
 40
0.0488
 50
219.9999999976323011
 51
270.0
  0
LINE
  5
2F799
  8
0
 10
6641.0341785710397744
 20
291.6866893231908193
 30
0.0
 11
6641.0341785710397744
 21
293.1499464430419835
 31
0.0
  0
ARC
  5
2F79A
  8
0
 10
6650.1670034343633233
 20
292.6121782101507165
 30
0.0
 40
9.4836361446293864
 50
180.9280441228241045
 51
182.534332929106796
  0
ARC
  5
2F79B
  8
0
 10
6642.3890923355293125
 20
292.2649728587002755
 30
0.0
 40
1.697982396825797
 50
182.4350653618556919
 51
190.1985254588747125
  0
ARC
  5
2F79C
  8
0
 10
6641.3694837367866057
 20
292.0947312282269195
 30
0.0
 40
0.6644673428355059
 50
191.3177910577803118
 51
214.8532355766051865
  0
ARC
  5
2F79D
  8
0
 10
6641.2468809691799834
 20
292.0093510345867003
 30
0.0
 40
0.5150644777657249
 50
214.8532355766051865
 51
240.1846206095418097
  0
ARC
  5
2F79E
  8
0
 10
6641.2306119727263649
 20
292.0213270681568929
 30
0.0
 40
0.5177553516399432
 50
242.4061686709864887
 51
267.4224740386396775
  0
LINE
  5
2F79F
  8
0
 10
6640.7992324213419124
 20
292.3233579496996981
 30
0.0
 11
6640.7992324213419124
 21
293.1499464430419835
 31
0.0
  0
ARC
  5
2F7A0
  8
0
 10
6639.4959317780248966
 20
292.4971486958538094
 30
0.0
 40
1.314836792275182
 50
337.680299323994177
 51
352.4046082055065767
  0
LINE
  5
2F7A1
  8
0
 10
6640.1124725035806478
 20
287.547422381980482
 30
0.0
 11
6642.3021833425036675
 21
287.547422381980482
 31
0.0
  0
LINE
  5
2F7A2
  8
0
 10
6642.3323279230426124
 20
287.5091248988961752
 30
0.0
 11
6642.3323279230426124
 21
287.3229385958421176
 31
0.0
  0
LINE
  5
2F7A3
  8
0
 10
6641.9578385714967226
 20
287.6306407827299836
 30
0.0
 11
6642.3021833425036675
 21
287.547422381980482
 31
0.0
  0
ARC
  5
2F7A4
  8
0
 10
6641.9115849651016106
 20
287.4392505690420876
 30
0.0
 40
0.1969
 50
76.4137340289633613
 51
90.0
  0
ARC
  5
2F7A5
  8
0
 10
6642.2929279230429529
 20
287.5091248988961752
 30
0.0
 40
0.0394
 50
0.0
 51
76.4137340289633613
  0
LINE
  5
2F7A6
  8
0
 10
6641.7585090254278839
 20
287.6361505690421154
 30
0.0
 11
6641.7585090254278839
 21
292.098731869354026
 31
0.0
  0
LINE
  5
2F7A7
  8
0
 10
6641.7585090254278839
 20
293.2665149855225764
 30
0.0
 11
6641.7585090254278839
 21
294.3129385690564845
 31
0.0
  0
LINE
  5
2F7A8
  8
0
 10
6641.6702247541952602
 20
293.1616621717946032
 30
0.0
 11
6641.7467932966746957
 21
293.2382307142751188
 31
0.0
  0
ARC
  5
2F7A9
  8
0
 10
6641.6419404829475752
 20
293.1899464430421176
 30
0.0
 40
0.04
 50
270.0
 51
315.0000000000069917
  0
ARC
  5
2F7AA
  8
0
 10
6641.7185090254279203
 20
293.2665149855225764
 30
0.0
 40
0.04
 50
315.0000000000022737
 51
0.0000000000032569
  0
LINE
  5
2F7AB
  8
0
 10
6641.7300445363089239
 20
293.2214819539087785
 30
0.0
 11
6641.7300445363089239
 21
292.4585744364820812
 31
0.0
  0
ARC
  5
2F7AC
  8
0
 10
6646.2155739174177143
 20
292.7076417141122988
 30
0.0
 40
4.4924390187932994
 50
183.1781899678975947
 51
186.3221313064184983
  0
ARC
  5
2F7AD
  8
0
 10
6640.2236755563808401
 20
292.0478950370688835
 30
0.0
 40
1.5356751483395941
 50
1.8970601921328849
 51
6.1698009116189096
  0
LINE
  5
2F7AE
  8
0
 10
6641.4529315773870621
 20
291.7730369983127048
 30
0.0
 11
6641.4737446665512834
 21
293.1499464430419835
 31
0.0
  0
LINE
  5
2F7AF
  8
0
 10
6641.3804772750454504
 20
291.6866893231908193
 30
0.0
 11
6641.4529315773870621
 21
291.7730369983127048
 31
0.0
  0
ARC
  5
2F7B0
  8
0
 10
6641.3430943062194274
 20
291.7180573585421257
 30
0.0
 40
0.0488
 50
270.0
 51
320.0000000023676989
  0
LINE
  5
2F7B1
  8
0
 10
6641.3804772750454504
 20
291.6866893231908193
 30
0.0
 11
6641.3804772750454504
 21
293.1499464430419835
 31
0.0
  0
ARC
  5
2F7B2
  8
0
 10
6632.2476524117219014
 20
292.6121782101507165
 30
0.0
 40
9.4836361446293864
 50
357.4656670708931188
 51
359.0719558771759239
  0
ARC
  5
2F7B3
  8
0
 10
6640.0255635105559122
 20
292.2649728587002755
 30
0.0
 40
1.697982396825797
 50
349.8014745411251738
 51
357.5649346381442797
  0
ARC
  5
2F7B4
  8
0
 10
6641.0451721092968
 20
292.0947312282269195
 30
0.0
 40
0.6644673428355059
 50
325.1467644233948135
 51
348.6822089422195745
  0
ARC
  5
2F7B5
  8
0
 10
6641.1677748769052414
 20
292.0093510345867003
 30
0.0
 40
0.5150644777657249
 50
299.8153793904581903
 51
325.1467644233948135
  0
ARC
  5
2F7B6
  8
0
 10
6641.1840438733597693
 20
292.0213270681568929
 30
0.0
 40
0.5177553516399432
 50
272.5775259613603225
 51
297.5938313290134261
  0
LINE
  5
2F7B7
  8
0
 10
6641.6154234247433124
 20
292.3233579496996981
 30
0.0
 11
6641.6154234247433124
 21
293.1499464430419835
 31
0.0
  0
ARC
  5
2F7B8
  8
0
 10
6642.9187240680603281
 20
292.4971486958538094
 30
0.0
 40
1.314836792275182
 50
187.5953917944933096
 51
202.3197006760057093
  0
LINE
  5
2F7B9
  8
0
 10
6634.0577216237415996
 20
289.5969376815424994
 30
0.0
 11
6634.0577216237415996
 21
288.8649697557415266
 31
0.0
  0
LINE
  5
2F7BA
  8
0
 10
6634.0689687233298173
 20
289.6240905819246905
 30
0.0
 11
6634.1645847603203947
 21
289.7197066190241799
 31
0.0
  0
LINE
  5
2F7BB
  8
0
 10
6634.0689687233298173
 20
288.8378168553593923
 30
0.0
 11
6634.1645847603203947
 21
288.7422008182599029
 31
0.0
  0
ARC
  5
2F7BC
  8
0
 10
6634.0961216237428744
 20
289.5969376815424994
 30
0.0
 40
0.0384
 50
135.0000000325754002
 51
180.0
  0
ARC
  5
2F7BD
  8
0
 10
6634.1917376607343613
 20
289.6925537186421025
 30
0.0
 40
0.0384
 50
90.0
 51
135.0000000325754002
  0
ARC
  5
2F7BE
  8
0
 10
6634.0961216237428744
 20
288.8649697557415266
 30
0.0
 40
0.0384
 50
180.0
 51
224.9999999674244862
  0
ARC
  5
2F7BF
  8
0
 10
6634.1917376607343613
 20
288.7693537186419803
 30
0.0
 40
0.0384
 50
224.9999999674244862
 51
270.0
  0
LINE
  5
2F7C0
  8
0
 10
6634.1645847603203947
 20
289.7197066190241799
 30
0.0
 11
6634.1645847603203947
 21
288.7422008182599029
 31
0.0
  0
LINE
  5
2F7C1
  8
0
 10
6636.6457038274493243
 20
289.7209524032433023
 30
0.0
 11
6636.6506923069991899
 21
289.7123105876502791
 31
0.0
  0
ARC
  5
2F7C2
  8
0
 10
6636.6283825599939519
 20
289.7109537186419743
 30
0.0
 40
0.02
 50
29.9956487912245215
 51
90.0
  0
LINE
  5
2F7C3
  8
0
 10
6636.678168591272879
 20
289.7245189876421136
 30
0.0
 11
6636.8102837468841244
 21
289.7245189876421136
 31
0.0
  0
LINE
  5
2F7C4
  8
0
 10
6637.0575481443684112
 20
289.7245189876421136
 30
0.0
 11
6637.2072176867422968
 21
289.7245189876421136
 31
0.0
  0
LINE
  5
2F7C5
  8
0
 10
6636.8121498993414207
 20
289.663428046642025
 30
0.0
 11
6637.2073022510421652
 21
289.663428046642025
 31
0.0
  0
ARC
  5
2F7C6
  8
0
 10
6636.7951383660038118
 20
289.9207995911332887
 30
0.0
 40
0.2548984884188292
 50
237.8221579289192107
 51
241.6718009479988893
  0
ARC
  5
2F7C7
  8
0
 10
6636.8048285103368471
 20
289.958911775492993
 30
0.0
 40
0.2932004338768122
 50
243.5393928654279989
 51
251.1269670853434093
  0
ARC
  5
2F7C8
  8
0
 10
6636.8156228618463501
 20
289.986369124281282
 30
0.0
 40
0.3226760348453483
 50
250.8903908943642023
 51
261.9749845003174187
  0
ARC
  5
2F7C9
  8
0
 10
6636.8190179917046407
 20
290.0008399019956755
 30
0.0
 40
0.3374817488782653
 50
261.7472004432545987
 51
268.8338928691503043
  0
ARC
  5
2F7CA
  8
0
 10
6636.697940980763633
 20
289.7601125118300729
 30
0.0
 40
0.0672120608806817
 50
225.3334913877069994
 51
235.0028173505072004
  0
ARC
  5
2F7CB
  8
0
 10
6636.6812523245889679
 20
289.7043460488330879
 30
0.0
 40
0.0204072749613992
 50
98.6912297382542221
 51
180.5618607475034025
  0
LINE
  5
2F7CC
  8
0
 10
6636.8025364586737851
 20
289.6766971890419882
 30
0.0
 11
6637.2071958882434046
 21
289.6766971890419882
 31
0.0
  0
ARC
  5
2F7CD
  8
0
 10
6636.6250713034560249
 20
289.6715208093302749
 30
0.0
 40
0.0750208562857188
 50
35.8433114464502509
 51
44.9464769335957186
  0
ARC
  5
2F7CE
  8
0
 10
6636.7164466088497647
 20
289.7396188192631143
 30
0.0
 40
0.0389630018455093
 50
218.3366413139058011
 51
243.2652818072342029
  0
ARC
  5
2F7CF
  8
0
 10
6636.7895736174150443
 20
289.8706554101632946
 30
0.0
 40
0.1889956723487322
 50
241.336369629023892
 51
253.0087655982707133
  0
ARC
  5
2F7D0
  8
0
 10
6636.830401711846207
 20
290.0031020013273064
 30
0.0
 40
0.3275920844850291
 50
252.9490077799200094
 51
265.1204774118137948
  0
LINE
  5
2F7D1
  8
0
 10
6637.6513958882433144
 20
289.2324971890420784
 30
0.0
 11
6637.6513958882433144
 21
288.8289098605332015
 31
0.0
  0
LINE
  5
2F7D2
  8
0
 10
6637.6398022510429655
 20
289.2309280466420205
 30
0.0
 11
6637.6398022510429655
 21
288.8248967430055245
 31
0.0
  0
LINE
  5
2F7D3
  8
0
 10
6637.6992176867433955
 20
289.2325189876419813
 30
0.0
 11
6637.6992176867433955
 21
289.0728127541129879
 31
0.0
  0
LINE
  5
2F7D4
  8
0
 10
6637.6992176867433955
 20
288.8422229925890861
 30
0.0
 11
6637.6992176867433955
 21
288.7044009427805236
 31
0.0
  0
ARC
  5
2F7D5
  8
0
 10
6637.2072176867422968
 20
289.2325189876419813
 30
0.0
 40
0.492
 50
0.0
 51
90.0
  0
ARC
  5
2F7D6
  8
0
 10
6637.2071958882434046
 20
289.2324971890420784
 30
0.0
 40
0.4442000000000001
 50
0.0
 51
90.0
  0
ARC
  5
2F7D7
  8
0
 10
6637.2073022510421652
 20
289.2309280466420205
 30
0.0
 40
0.4325000000000001
 50
0.0
 51
90.0
  0
ARC
  5
2F7D8
  8
0
 10
6637.6791417365866437
 20
288.7063189224296025
 30
0.0
 40
0.0201673602794398
 50
270.738654681311175
 51
354.5427427930709996
  0
ARC
  5
2F7D9
  8
0
 10
6638.0062303848562806
 20
288.859420848039008
 30
0.0
 40
0.3561438478274631
 50
184.9145768452115988
 51
193.6480880989620061
  0
ARC
  5
2F7DA
  8
0
 10
6637.9085062556641788
 20
288.8376909819322123
 30
0.0
 40
0.2560591618828082
 50
194.0827421986338948
 51
202.5612990846888977
  0
ARC
  5
2F7DB
  8
0
 10
6637.7970241412267569
 20
288.7913737809524264
 30
0.0
 40
0.1353382235763699
 50
202.5612990846888977
 51
209.9387662143078899
  0
ARC
  5
2F7DC
  8
0
 10
6637.7396537434842685
 20
288.7583326673673128
 30
0.0
 40
0.0691334071035508
 50
209.9387662143078899
 51
217.8323885742875916
  0
ARC
  5
2F7DD
  8
0
 10
6637.7021928521417067
 20
288.7292410891921008
 30
0.0
 40
0.0217030549966212
 50
217.8323885742875916
 51
236.2957560908523078
  0
ARC
  5
2F7DE
  8
0
 10
6637.6372501657979228
 20
288.6310359930292861
 30
0.0
 40
0.0960332728999405
 50
49.8139755804088082
 51
56.574938813752361
  0
ARC
  5
2F7DF
  8
0
 10
6638.0461290940020262
 20
288.8542600500784943
 30
0.0
 40
0.4073864346188613
 50
184.1333082081343093
 51
191.9615264337319047
  0
ARC
  5
2F7E0
  8
0
 10
6637.9493554843838865
 20
288.8358079112570067
 30
0.0
 40
0.308896285583692
 50
192.3334850292270062
 51
199.8432401724915906
  0
ARC
  5
2F7E1
  8
0
 10
6637.957637443438216
 20
288.8387966622981935
 30
0.0
 40
0.3177010274076622
 50
199.8432401724915906
 51
207.1588371750640931
  0
ARC
  5
2F7E2
  8
0
 10
6637.7491383077458522
 20
288.7318319466107255
 30
0.0
 40
0.0833650720216001
 50
207.1588371750640931
 51
223.2050176977998888
  0
LINE
  5
2F7E3
  8
0
 10
6637.7073254312417703
 20
288.6520091177624181
 30
0.0
 11
6637.7073254312417703
 21
287.6661505690420881
 31
0.0
  0
LINE
  5
2F7E4
  8
0
 10
6637.6883727835429454
 20
288.6747593060420058
 30
0.0
 11
6637.697689519078267
 21
288.6691142539306156
 31
0.0
  0
ARC
  5
2F7E5
  8
0
 10
6637.6873254312431527
 20
288.6520091177624181
 30
0.0
 40
0.02
 50
0.0
 51
58.7881385991197618
  0
LINE
  5
2F7E6
  8
0
 10
6635.8731088130280114
 20
289.2746873646281074
 30
0.0
 11
6635.3429947017166342
 21
288.744573253316787
 31
0.0
  0
LINE
  5
2F7E7
  8
0
 10
6637.2197301543319554
 20
289.3328559183760262
 30
0.0
 11
6636.0135402262776552
 21
289.3328559578844761
 31
0.0
  0
LINE
  5
2F7E8
  8
0
 10
6637.3092301514006977
 20
289.243355918917473
 30
0.0
 11
6637.3092301609412971
 21
287.6661505689816067
 31
0.0
  0
ARC
  5
2F7E9
  8
0
 10
6637.2197301513997445
 20
289.2433559183760963
 30
0.0
 40
0.0895
 50
0.0000003466175616
 51
89.9999981233029729
  0
ARC
  5
2F7EA
  8
0
 10
6636.0135402197729491
 20
289.1342559578844771
 30
0.0
 40
0.1986
 50
89.9999981233029729
 51
135.0000000000046043
  0
ARC
  5
2F7EB
  8
0
 10
6637.097328217842005
 20
289.120953718642113
 30
0.0
 40
0.11
 50
0.0
 51
90.0
  0
ARC
  5
2F7EC
  8
0
 10
6635.8710450514163313
 20
289.1303537186420272
 30
0.0
 40
0.1006
 50
90.0
 51
135.0000000000046043
  0
LINE
  5
2F7ED
  8
0
 10
6635.602828508292987
 20
288.9866317020595829
 30
0.0
 11
6636.6959841588577547
 21
288.9883897287094214
 31
0.0
  0
LINE
  5
2F7EE
  8
0
 10
6635.5011865940550706
 20
288.8836230100420153
 30
0.0
 11
6636.6528529024180898
 21
288.8836230100420153
 31
0.0
  0
ARC
  5
2F7EF
  8
0
 10
6635.5011865940550706
 20
288.8886230100421244
 30
0.0
 40
0.005
 50
135.0000000000046043
 51
270.0
  0
LINE
  5
2F7F0
  8
0
 10
6636.7701032565555579
 20
288.958229769328625
 30
0.0
 11
6636.9276039738197142
 21
288.8007290519665844
 31
0.0
  0
LINE
  5
2F7F1
  8
0
 10
6636.9577639334547712
 20
288.7266099784267226
 30
0.0
 11
6636.9445130923731995
 21
287.6662755277897077
 31
0.0
  0
LINE
  5
2F7F2
  8
0
 10
6636.7256849008799691
 20
288.8534550085042838
 30
0.0
 11
6636.822829212805118
 21
288.756310696579817
 31
0.0
  0
LINE
  5
2F7F3
  8
0
 10
6636.8529972143423947
 20
288.6834786981175967
 30
0.0
 11
6636.8529972143423947
 21
287.6661505690420881
 31
0.0
  0
ARC
  5
2F7F4
  8
0
 10
6636.6528529024180898
 20
288.7806230100421203
 30
0.0
 40
0.103
 50
44.9999999999953886
 51
90.0
  0
ARC
  5
2F7F5
  8
0
 10
6636.7499972143423292
 20
288.6834786981175967
 30
0.0
 40
0.103
 50
0.0
 51
44.9999999999953886
  0
ARC
  5
2F7F6
  8
0
 10
6636.6972712580700318
 20
288.8853977708893126
 30
0.0
 40
0.103
 50
44.9999999819954013
 51
90.7159929331665325
  0
ARC
  5
2F7F7
  8
0
 10
6636.8547719753332785
 20
288.727897053527272
 30
0.0
 40
0.103
 50
359.2840204809244256
 51
44.9999999819954013
  0
ARC
  5
2F7F8
  8
0
 10
6636.8629972143417035
 20
287.6661505690420881
 30
0.0
 40
0.01
 50
180.0
 51
270.0
  0
ARC
  5
2F7F9
  8
0
 10
6636.9545123116076866
 20
287.6661505690420881
 30
0.0
 40
0.01
 50
179.2840204809243971
 51
270.0
  0
ARC
  5
2F7FA
  8
0
 10
6637.697325431243371
 20
287.6661505690420881
 30
0.0
 40
0.01
 50
270.0
 51
0.0
  0
ARC
  5
2F7FB
  8
0
 10
6637.2173282178418958
 20
287.6661505690420881
 30
0.0
 40
0.01
 50
180.0
 51
270.0
  0
ARC
  5
2F7FC
  8
0
 10
6637.3192301609424248
 20
287.6661505690420881
 30
0.0
 40
0.01
 50
180.0000003466174974
 51
270.0
  0
LINE
  5
2F7FD
  8
0
 10
6637.2003279230430053
 20
289.120953718642113
 30
0.0
 11
6637.2003279230430053
 21
287.6661505690420881
 31
0.0
  0
ARC
  5
2F7FE
  8
0
 10
6637.0903279230424232
 20
289.120953718642113
 30
0.0
 40
0.11
 50
0.0
 51
90.0
  0
ARC
  5
2F7FF
  8
0
 10
6637.1903279230418775
 20
287.6661505690420881
 30
0.0
 40
0.01
 50
270.0
 51
0.0
  0
LINE
  5
2F800
  8
0
 10
6636.082328217842587
 20
287.529124763996208
 30
0.0
 11
6636.082328217842587
 21
287.3229385958421176
 31
0.0
  0
LINE
  5
2F801
  8
0
 10
6636.082328217842587
 20
287.3229385958421176
 30
0.0
 11
6638.3323282178416775
 21
287.3229385958421176
 31
0.0
  0
LINE
  5
2F802
  8
0
 10
6636.456817498383316
 20
287.6506407656050897
 30
0.0
 11
6636.1124727842006905
 21
287.567422243653823
 31
0.0
  0
ARC
  5
2F803
  8
0
 10
6636.5030711756380697
 20
287.4592505690421262
 30
0.0
 40
0.1969
 50
90.0
 51
103.5862871840708976
  0
ARC
  5
2F804
  8
0
 10
6636.121728217843156
 20
287.529124763996208
 30
0.0
 40
0.0394
 50
103.5862871840708976
 51
180.0
  0
LINE
  5
2F805
  8
0
 10
6638.3323282178416775
 20
287.529124763996208
 30
0.0
 11
6638.3323282178416775
 21
287.3229385958421176
 31
0.0
  0
LINE
  5
2F806
  8
0
 10
6637.9578389373018581
 20
287.6506407656050897
 30
0.0
 11
6638.3021836514817551
 21
287.567422243653823
 31
0.0
  0
ARC
  5
2F807
  8
0
 10
6637.9115852600480139
 20
287.4592505690421262
 30
0.0
 40
0.1969
 50
76.4137128159290739
 51
90.0
  0
ARC
  5
2F808
  8
0
 10
6638.2929282178420181
 20
287.529124763996208
 30
0.0
 40
0.0394
 50
0.0
 51
76.4137128159290739
  0
CIRCLE
  5
2F809
  8
0
 10
6641.2073279230426124
 20
292.4515055928420111
 30
0.0
 40
0.1208994948999997
  0
LINE
  5
2F80A
  8
0
 10
6635.4976510601482005
 20
288.8921585439480282
 30
0.0
 11
6635.8062782333054201
 21
289.2007857171042815
 31
0.0
  0
LINE
  5
2F80B
  8
0
 10
6635.7999085425926751
 20
289.2014870941919753
 30
0.0
 11
6635.8034440764931787
 21
289.1979515602915853
 31
0.0
  0
LINE
  5
2F80C
  8
0
 10
6635.615767207141289
 20
289.017345758742124
 30
0.0
 11
6635.6249093427131811
 21
289.0194168265131225
 31
0.0
  0
LINE
  5
2F80D
  8
0
 10
6635.5693756237433263
 20
288.9709541753421149
 30
0.0
 11
6635.5764466915434241
 21
288.9709541753421149
 31
0.0
  0
ARC
  5
2F80E
  8
0
 10
6635.6059394898102255
 20
288.9933343504281993
 30
0.0
 40
0.0073894317208181
 50
182.1080046824924068
 51
245.1019992522620896
  0
ARC
  5
2F80F
  8
0
 10
6636.9339159456249035
 20
290.1939794839765909
 30
0.0
 40
0.4852714159610933
 50
255.4243762880745123
 51
284.5756237119255161
  0
ARC
  5
2F810
  8
0
 10
6636.8102837468841244
 20
289.7185189876420282
 30
0.0
 40
0.006
 50
75.4243762880744981
 51
90.0
  0
ARC
  5
2F811
  8
0
 10
6637.0575481443684112
 20
289.7185189876420282
 30
0.0
 40
0.006
 50
90.0
 51
104.5756237119262977
  0
ARC
  5
2F812
  8
0
 10
6638.1675753537901983
 20
288.9575178733509802
 30
0.0
 40
0.4821681122490292
 50
166.3388902627181096
 51
193.6611097372818051
  0
ARC
  5
2F813
  8
0
 10
6637.6932176867421731
 20
288.8422229925890861
 30
0.0
 40
0.006
 50
0.0
 51
13.6611097372818797
  0
ARC
  5
2F814
  8
0
 10
6637.6932176867421731
 20
289.0728127541129879
 30
0.0
 40
0.006
 50
346.3388902627212929
 51
0.0
  0
LINE
  5
2F815
  8
0
 10
6645.2073276282426377
 20
289.120953718642113
 30
0.0
 11
6645.2073276282426377
 21
287.6661505690420881
 31
0.0
  0
LINE
  5
2F816
  8
0
 10
6644.5030705860372109
 20
287.6561505690419835
 30
0.0
 11
6645.9115846704471551
 21
287.6561505690419835
 31
0.0
  0
LINE
  5
2F817
  8
0
 10
6644.1124721946098362
 20
287.5674222436554146
 30
0.0
 11
6646.3021830618772583
 21
287.5674222436554146
 31
0.0
  0
LINE
  5
2F818
  8
0
 10
6645.3173276282432198
 20
289.2309537186421267
 30
0.0
 11
6646.5436107946688935
 21
289.2309537186421267
 31
0.0
  0
ARC
  5
2F819
  8
0
 10
6646.5355456143170159
 20
289.1279537186420043
 30
0.0
 40
0.103
 50
44.9999999999953886
 51
90.0
  0
LINE
  5
2F81A
  8
0
 10
6645.7862732860912729
 20
289.7309537186421267
 30
0.0
 11
6648.2229181853508635
 21
289.7309537186421267
 31
0.0
  0
LINE
  5
2F81B
  8
0
 10
6647.1045416096922054
 20
288.7309537186421267
 30
0.0
 11
6648.2229181853508635
 21
288.7309537186421267
 31
0.0
  0
ARC
  5
2F81C
  8
0
 10
6647.1045416096922054
 20
288.7774537186419934
 30
0.0
 40
0.0465
 50
224.9999999999953957
 51
270.0
  0
LINE
  5
2F81D
  8
0
 10
6648.3569342223427157
 20
289.5969376815424994
 30
0.0
 11
6648.3569342223427157
 21
288.8649697557415266
 31
0.0
  0
LINE
  5
2F81E
  8
0
 10
6648.3456871227554075
 20
289.6240905819246905
 30
0.0
 11
6648.2500710857648301
 21
289.7197066190241799
 31
0.0
  0
LINE
  5
2F81F
  8
0
 10
6648.3456871227554075
 20
288.8378168553593923
 30
0.0
 11
6648.2500710857648301
 21
288.7422008182599029
 31
0.0
  0
ARC
  5
2F820
  8
0
 10
6648.3185342223423504
 20
289.5969376815424994
 30
0.0
 40
0.0384
 50
0.0
 51
44.9999999674245075
  0
ARC
  5
2F821
  8
0
 10
6648.2229181853508635
 20
289.6925537186421025
 30
0.0
 40
0.0384
 50
44.9999999674245075
 51
90.0
  0
ARC
  5
2F822
  8
0
 10
6648.3185342223423504
 20
288.8649697557415266
 30
0.0
 40
0.0384
 50
315.0000000325754854
 51
0.0
  0
ARC
  5
2F823
  8
0
 10
6648.2229181853508635
 20
288.7693537186419803
 30
0.0
 40
0.0384
 50
270.0
 51
315.0000000325754854
  0
LINE
  5
2F824
  8
0
 10
6648.2500710857648301
 20
289.7197066190241799
 30
0.0
 11
6648.2500710857648301
 21
288.7422008182599029
 31
0.0
  0
LINE
  5
2F825
  8
0
 10
6645.7689520186359005
 20
289.7209524032433023
 30
0.0
 11
6645.7639635390860349
 21
289.7123105876502791
 31
0.0
  0
ARC
  5
2F826
  8
0
 10
6645.7862732860912729
 20
289.7109537186419743
 30
0.0
 40
0.02
 50
90.0
 51
150.0043512087754891
  0
LINE
  5
2F827
  8
0
 10
6645.7364872548123458
 20
289.7245189876421136
 30
0.0
 11
6645.6043720992011004
 21
289.7245189876421136
 31
0.0
  0
LINE
  5
2F828
  8
0
 10
6645.3571077017168136
 20
289.7245189876421136
 30
0.0
 11
6645.207438159342928
 21
289.7245189876421136
 31
0.0
  0
LINE
  5
2F829
  8
0
 10
6645.6025059467438041
 20
289.663428046642025
 30
0.0
 11
6645.2073535950421501
 21
289.663428046642025
 31
0.0
  0
ARC
  5
2F82A
  8
0
 10
6645.6195174800814129
 20
289.9207995911332887
 30
0.0
 40
0.2548984884188292
 50
298.3281990520010822
 51
302.177842071080704
  0
ARC
  5
2F82B
  8
0
 10
6645.6098273357483777
 20
289.958911775492993
 30
0.0
 40
0.2932004338768122
 50
288.8730329146566191
 51
296.4606071345720011
  0
ARC
  5
2F82C
  8
0
 10
6645.5990329842397841
 20
289.986369124281282
 30
0.0
 40
0.3226760348453483
 50
278.0250154996825813
 51
289.1096091056357977
  0
ARC
  5
2F82D
  8
0
 10
6645.595637854380584
 20
290.0008399019956755
 30
0.0
 40
0.3374817488782653
 50
271.1661071308498094
 51
278.252799556745515
  0
ARC
  5
2F82E
  8
0
 10
6645.7167148653206823
 20
289.7601125118300729
 30
0.0
 40
0.0672120608806817
 50
304.9971826494929132
 51
314.6665086122930006
  0
ARC
  5
2F82F
  8
0
 10
6645.7334035214962569
 20
289.7043460488330879
 30
0.0
 40
0.0204072749613992
 50
359.4381392524966259
 51
81.3087702617457779
  0
LINE
  5
2F830
  8
0
 10
6645.6121193874114397
 20
289.6766971890419882
 30
0.0
 11
6645.2074599578418201
 21
289.6766971890419882
 31
0.0
  0
ARC
  5
2F831
  8
0
 10
6645.7895845426301094
 20
289.6715208093302749
 30
0.0
 40
0.0750208562857188
 50
135.0535230664042956
 51
144.1566885535497136
  0
ARC
  5
2F832
  8
0
 10
6645.698209237233641
 20
289.7396188192631143
 30
0.0
 40
0.0389630018455093
 50
296.7347181927657971
 51
321.6633586860942273
  0
ARC
  5
2F833
  8
0
 10
6645.6250822286701805
 20
289.8706554101632946
 30
0.0
 40
0.1889956723487322
 50
286.9912344017294004
 51
298.6636303709761933
  0
ARC
  5
2F834
  8
0
 10
6645.5842541342390177
 20
290.0031020013273064
 30
0.0
 40
0.3275920844850291
 50
274.8795225881860915
 51
287.0509922200799906
  0
LINE
  5
2F835
  8
0
 10
6644.7632599578428199
 20
289.2324971890420784
 30
0.0
 11
6644.7632599578428199
 21
288.8289098605332015
 31
0.0
  0
LINE
  5
2F836
  8
0
 10
6644.7748535950422593
 20
289.2309280466420205
 30
0.0
 11
6644.7748535950422593
 21
288.8248967430055245
 31
0.0
  0
LINE
  5
2F837
  8
0
 10
6644.7154381593436483
 20
289.2325189876419813
 30
0.0
 11
6644.7154381593436483
 21
289.0728127541129879
 31
0.0
  0
LINE
  5
2F838
  8
0
 10
6644.7154381593436483
 20
288.8422229925890861
 30
0.0
 11
6644.7154381593436483
 21
288.7044009427805236
 31
0.0
  0
ARC
  5
2F839
  8
0
 10
6645.207438159342928
 20
289.2325189876419813
 30
0.0
 40
0.492
 50
90.0
 51
180.0
  0
ARC
  5
2F83A
  8
0
 10
6645.2074599578418201
 20
289.2324971890420784
 30
0.0
 40
0.4442000000000001
 50
90.0
 51
180.0
  0
ARC
  5
2F83B
  8
0
 10
6645.2073535950421501
 20
289.2309280466420205
 30
0.0
 40
0.4325000000000001
 50
90.0
 51
180.0
  0
ARC
  5
2F83C
  8
0
 10
6644.7355141095004001
 20
288.7063189224296025
 30
0.0
 40
0.0201673602794398
 50
185.4572572069288867
 51
269.261345318688825
  0
ARC
  5
2F83D
  8
0
 10
6644.4084254612289442
 20
288.859420848039008
 30
0.0
 40
0.3561438478274631
 50
346.3519119010380223
 51
355.0854231547883728
  0
ARC
  5
2F83E
  8
0
 10
6644.506149590422865
 20
288.8376909819322123
 30
0.0
 40
0.2560591618828082
 50
337.4387009153110739
 51
345.9172578013628936
  0
ARC
  5
2F83F
  8
0
 10
6644.6176317048575584
 20
288.7913737809524264
 30
0.0
 40
0.1353382235763699
 50
330.0612337856920817
 51
337.4387009153110739
  0
ARC
  5
2F840
  8
0
 10
6644.6750021026009563
 20
288.7583326673673128
 30
0.0
 40
0.0691334071035508
 50
322.16761142571238
 51
330.0612337856920817
  0
ARC
  5
2F841
  8
0
 10
6644.7124629939453371
 20
288.7292410891921008
 30
0.0
 40
0.0217030549966212
 50
303.7042439091476922
 51
322.16761142571238
  0
ARC
  5
2F842
  8
0
 10
6644.7774056802873019
 20
288.6310359930292861
 30
0.0
 40
0.0960332728999405
 50
123.4250611862476035
 51
130.186024419591206
  0
ARC
  5
2F843
  8
0
 10
6644.3685267520831985
 20
288.8542600500784943
 30
0.0
 40
0.4073864346188613
 50
348.03847356626801
 51
355.8666917918656054
  0
ARC
  5
2F844
  8
0
 10
6644.4653003617022478
 20
288.8358079112570067
 30
0.0
 40
0.308896285583692
 50
340.1567598275084947
 51
347.6665149707728801
  0
ARC
  5
2F845
  8
0
 10
6644.4570184026470088
 20
288.8387966622981935
 30
0.0
 40
0.3177010274076622
 50
332.8411628249359069
 51
340.1567598275084947
  0
ARC
  5
2F846
  8
0
 10
6644.665517538340282
 20
288.7318319466107255
 30
0.0
 40
0.0833650720216001
 50
316.7949823022000828
 51
332.8411628249359069
  0
LINE
  5
2F847
  8
0
 10
6644.7073304148434545
 20
288.6520091177624181
 30
0.0
 11
6644.7073304148434545
 21
287.6661505690420881
 31
0.0
  0
LINE
  5
2F848
  8
0
 10
6644.7262830625422794
 20
288.6747593060420058
 30
0.0
 11
6644.7169663270069577
 21
288.6691142539306156
 31
0.0
  0
ARC
  5
2F849
  8
0
 10
6644.7273304148420721
 20
288.6520091177624181
 30
0.0
 40
0.02
 50
121.2118614008801956
 51
180.0
  0
LINE
  5
2F84A
  8
0
 10
6646.5415470330572134
 20
289.2746873646281074
 30
0.0
 11
6647.0716611443676811
 21
288.744573253316787
 31
0.0
  0
LINE
  5
2F84B
  8
0
 10
6645.1949256917532693
 20
289.3328559183760262
 30
0.0
 11
6646.4011156198075696
 21
289.3328559578844761
 31
0.0
  0
LINE
  5
2F84C
  8
0
 10
6645.1054256946827081
 20
289.243355918917473
 30
0.0
 11
6645.1054256851439277
 21
287.6661505689816067
 31
0.0
  0
ARC
  5
2F84D
  8
0
 10
6645.1949256946827518
 20
289.2433559183760963
 30
0.0
 40
0.0895
 50
90.0000018766970129
 51
179.9999996533823889
  0
ARC
  5
2F84E
  8
0
 10
6646.4011156263122757
 20
289.1342559578844771
 30
0.0
 40
0.1986
 50
44.9999999999953886
 51
90.0000018766970129
  0
ARC
  5
2F84F
  8
0
 10
6645.3173276282432198
 20
289.120953718642113
 30
0.0
 40
0.11
 50
90.0
 51
180.0
  0
ARC
  5
2F850
  8
0
 10
6646.5436107946688935
 20
289.1303537186420272
 30
0.0
 40
0.1006
 50
44.9999999999953886
 51
90.0
  0
LINE
  5
2F851
  8
0
 10
6646.8118273377940568
 20
288.9866317020595829
 30
0.0
 11
6645.7186716872265606
 21
288.9883897287094214
 31
0.0
  0
LINE
  5
2F852
  8
0
 10
6646.9134692520301542
 20
288.8836230100420153
 30
0.0
 11
6645.761802943667135
 21
288.8836230100420153
 31
0.0
  0
ARC
  5
2F853
  8
0
 10
6646.9134692520301542
 20
288.8886230100421244
 30
0.0
 40
0.005
 50
270.0
 51
44.9999999999953886
  0
LINE
  5
2F854
  8
0
 10
6645.6445525895296669
 20
288.958229769328625
 30
0.0
 11
6645.4870518722673296
 21
288.8007290519665844
 31
0.0
  0
LINE
  5
2F855
  8
0
 10
6645.4568919126304536
 20
288.7266099784267226
 30
0.0
 11
6645.4701427537120253
 21
287.6662755277897077
 31
0.0
  0
LINE
  5
2F856
  8
0
 10
6645.6889709452043462
 20
288.8534550085042838
 30
0.0
 11
6645.5918266332801068
 21
288.756310696579817
 31
0.0
  0
LINE
  5
2F857
  8
0
 10
6645.56165863174283
 20
288.6834786981175967
 30
0.0
 11
6645.56165863174283
 21
287.6661505690420881
 31
0.0
  0
ARC
  5
2F858
  8
0
 10
6645.761802943667135
 20
288.7806230100421203
 30
0.0
 40
0.103
 50
90.0
 51
135.0000000000046043
  0
ARC
  5
2F859
  8
0
 10
6645.6646586317428955
 20
288.6834786981175967
 30
0.0
 40
0.103
 50
135.0000000000046043
 51
180.0
  0
ARC
  5
2F85A
  8
0
 10
6645.717384588015193
 20
288.8853977708893126
 30
0.0
 40
0.103
 50
89.2840070668334818
 51
135.0000000180046129
  0
ARC
  5
2F85B
  8
0
 10
6645.5598838707519462
 20
288.727897053527272
 30
0.0
 40
0.103
 50
135.0000000180046129
 51
180.7159795190756029
  0
ARC
  5
2F85C
  8
0
 10
6645.5516586317426118
 20
287.6661505690420881
 30
0.0
 40
0.01
 50
270.0
 51
0.0
  0
ARC
  5
2F85D
  8
0
 10
6645.4601435344766287
 20
287.6661505690420881
 30
0.0
 40
0.01
 50
270.0
 51
0.7159795190755998
  0
ARC
  5
2F85E
  8
0
 10
6644.7173304148427633
 20
287.6661505690420881
 30
0.0
 40
0.01
 50
179.9999999999967031
 51
270.0
  0
ARC
  5
2F85F
  8
0
 10
6645.1973276282433289
 20
287.6661505690420881
 30
0.0
 40
0.01
 50
270.0
 51
0.0
  0
ARC
  5
2F860
  8
0
 10
6645.0954256851427999
 20
287.6661505690420881
 30
0.0
 40
0.01
 50
270.0
 51
359.9999996533824174
  0
LINE
  5
2F861
  8
0
 10
6645.2143279230422195
 20
289.120953718642113
 30
0.0
 11
6645.2143279230422195
 21
287.6661505690420881
 31
0.0
  0
ARC
  5
2F862
  8
0
 10
6645.3243279230428016
 20
289.120953718642113
 30
0.0
 40
0.11
 50
90.0
 51
180.0
  0
ARC
  5
2F863
  8
0
 10
6645.2243279230433473
 20
287.6661505690420881
 30
0.0
 40
0.01
 50
180.0
 51
270.0
  0
LINE
  5
2F864
  8
0
 10
6646.3323276282417282
 20
287.529124763996208
 30
0.0
 11
6646.3323276282417282
 21
287.3229385958421176
 31
0.0
  0
LINE
  5
2F865
  8
0
 10
6646.3323276282417282
 20
287.3229385958421176
 30
0.0
 11
6644.0823276282426377
 21
287.3229385958421176
 31
0.0
  0
LINE
  5
2F866
  8
0
 10
6645.9578383477019088
 20
287.6506407656050897
 30
0.0
 11
6646.3021830618827153
 21
287.567422243653823
 31
0.0
  0
ARC
  5
2F867
  8
0
 10
6645.9115846704471551
 20
287.4592505690421262
 30
0.0
 40
0.1969
 50
76.4137128159290739
 51
90.0
  0
ARC
  5
2F868
  8
0
 10
6646.2929276282438877
 20
287.529124763996208
 30
0.0
 40
0.0394
 50
0.0
 51
76.4137128159290739
  0
LINE
  5
2F869
  8
0
 10
6644.0823276282426377
 20
287.529124763996208
 30
0.0
 11
6644.0823276282426377
 21
287.3229385958421176
 31
0.0
  0
LINE
  5
2F86A
  8
0
 10
6644.4568169087833667
 20
287.6506407656050897
 30
0.0
 11
6644.1124721946007412
 21
287.567422243653823
 31
0.0
  0
ARC
  5
2F86B
  8
0
 10
6644.5030705860372109
 20
287.4592505690421262
 30
0.0
 40
0.1969
 50
90.0
 51
103.5862871840708976
  0
ARC
  5
2F86C
  8
0
 10
6644.1217276282432067
 20
287.529124763996208
 30
0.0
 40
0.0394
 50
103.5862871840708976
 51
180.0
  0
LINE
  5
2F86D
  8
0
 10
6646.9170047859370243
 20
288.8921585439480282
 30
0.0
 11
6646.6083776127798046
 21
289.2007857171042815
 31
0.0
  0
LINE
  5
2F86E
  8
0
 10
6646.6147473034916402
 20
289.2014870941919753
 30
0.0
 11
6646.6112117695929555
 21
289.1979515602915853
 31
0.0
  0
LINE
  5
2F86F
  8
0
 10
6646.7988886389439358
 20
289.017345758742124
 30
0.0
 11
6646.7897465033702247
 21
289.0194168265131225
 31
0.0
  0
LINE
  5
2F870
  8
0
 10
6646.8452802223418985
 20
288.9709541753421149
 30
0.0
 11
6646.8382091545418007
 21
288.9709541753421149
 31
0.0
  0
ARC
  5
2F871
  8
0
 10
6646.8087163562749993
 20
288.9933343504281993
 30
0.0
 40
0.0073894317208181
 50
294.8980007477377967
 51
357.8919953175075079
  0
ARC
  5
2F872
  8
0
 10
6645.4807399004603212
 20
290.1939794839765909
 30
0.0
 40
0.4852714159610933
 50
255.4243762880745123
 51
284.5756237119255161
  0
ARC
  5
2F873
  8
0
 10
6645.6043720992011004
 20
289.7185189876420282
 30
0.0
 40
0.006
 50
90.0
 51
104.5756237119255019
  0
ARC
  5
2F874
  8
0
 10
6645.3571077017168136
 20
289.7185189876420282
 30
0.0
 40
0.006
 50
75.4243762880736739
 51
90.0
  0
ARC
  5
2F875
  8
0
 10
6644.2470804922950265
 20
288.9575178733509802
 30
0.0
 40
0.4821681122490292
 50
346.3388902627181096
 51
13.6611097372818797
  0
ARC
  5
2F876
  8
0
 10
6644.7214381593430517
 20
288.8422229925890861
 30
0.0
 40
0.006
 50
166.3388902627181096
 51
180.0
  0
ARC
  5
2F877
  8
0
 10
6644.7214381593430517
 20
289.0728127541129879
 30
0.0
 40
0.006
 50
180.0
 51
193.6611097372787071
  0
CIRCLE
  5
2FA4A
  8
0
 10
6641.2073279230426124
 20
292.4515055928420111
 30
0.0
 40
0.0468053359000005
  0
ENDSEC
  0
EOF
