  0
SECTION
  2
HEADER
  9
$ACADVER
  1
AC1009
  9
$INSBASE
 10
6630.6989764951104007
 20
291.2348622505155049
 30
0.0
  9
$EXTMIN
 10
6623.6477956954086039
 20
291.2297994080885815
 30
0.0
  9
$EXTMAX
 10
6631.8239764951104007
 20
298.7760433261154844
 30
0.0
  9
$LIMMIN
 10
0.0
 20
0.0
  9
$LIMMAX
 10
11.6929133858000007
 20
8.2677165353999982
  9
$ORTHOMODE
 70
     0
  9
$REGENMODE
 70
     1
  9
$FILLMODE
 70
     1
  9
$QTEXTMODE
 70
     0
  9
$MIRRTEXT
 70
     0
  9
$DRAGMODE
 70
     2
  9
$LTSCALE
 40
0.6431102362
  9
$OSMODE
 70
  4095
  9
$ATTMODE
 70
     1
  9
$TEXTSIZE
 40
0.2
  9
$TRACEWID
 40
0.05
  9
$TEXTSTYLE
  7
STANDARD
  9
$CLAYER
  8
0
  9
$CELTYPE
  6
BYLAYER
  9
$CECOLOR
 62
   256
  9
$DIMSCALE
 40
1.0
  9
$DIMASZ
 40
0.1875
  9
$DIMEXO
 40
0.0625
  9
$DIMDLI
 40
0.4443307087
  9
$DIMRND
 40
0.0
  9
$DIMDLE
 40
0.0
  9
$DIMEXE
 40
0.125
  9
$DIMTP
 40
0.01
  9
$DIMTM
 40
0.01
  9
$DIMTXT
 40
2.0
  9
$DIMCEN
 40
0.1052362205
  9
$DIMTSZ
 40
0.0
  9
$DIMTOL
 70
     1
  9
$DIMLIM
 70
     0
  9
$DIMTIH
 70
     1
  9
$DIMTOH
 70
     1
  9
$DIMSE1
 70
     0
  9
$DIMSE2
 70
     0
  9
$DIMTAD
 70
     0
  9
$DIMZIN
 70
     0
  9
$DIMBLK
  1

  9
$DIMASO
 70
     1
  9
$DIMSHO
 70
     1
  9
$DIMPOST
  1
\X
  9
$DIMAPOST
  1

  9
$DIMALT
 70
     1
  9
$DIMALTD
 70
     2
  9
$DIMALTF
 40
25.3999999999999986
  9
$DIMLFAC
 40
1.0
  9
$DIMTOFL
 70
     0
  9
$DIMTVP
 40
0.0
  9
$DIMTIX
 70
     0
  9
$DIMSOXD
 70
     0
  9
$DIMSAH
 70
     0
  9
$DIMBLK1
  1

  9
$DIMBLK2
  1

  9
$DIMSTYLE
  2
STANDARD
  9
$DIMCLRD
 70
     0
  9
$DIMCLRE
 70
     0
  9
$DIMCLRT
 70
     0
  9
$DIMTFAC
 40
1.0
  9
$DIMGAP
 40
0.09
  9
$LUNITS
 70
     2
  9
$LUPREC
 70
     4
  9
$SKETCHINC
 40
0.1
  9
$FILLETRAD
 40
0.0
  9
$AUNITS
 70
     0
  9
$AUPREC
 70
     0
  9
$MENU
  1
.
  9
$ELEVATION
 40
0.0
  9
$PELEVATION
 40
0.0
  9
$THICKNESS
 40
0.0
  9
$LIMCHECK
 70
     0
  9
$BLIPMODE
 70
     0
  9
$CHAMFERA
 40
0.0
  9
$CHAMFERB
 40
0.0
  9
$SKPOLY
 70
     0
  9
$TDCREATE
 40
2458060.468368056230247
  9
$TDUPDATE
 40
2460693.4854629631154239
  9
$TDINDWG
 40
0.8389769676
  9
$TDUSRTIMER
 40
0.8389769676
  9
$USRTIMER
 70
     1
  9
$ANGBASE
 50
0.0
  9
$ANGDIR
 70
     0
  9
$PDMODE
 70
     0
  9
$PDSIZE
 40
0.3125
  9
$PLINEWID
 40
0.0
  9
$COORDS
 70
     2
  9
$SPLFRAME
 70
     0
  9
$SPLINETYPE
 70
     6
  9
$SPLINESEGS
 70
     8
  9
$ATTDIA
 70
     1
  9
$ATTREQ
 70
     1
  9
$HANDLING
 70
     1
  9
$HANDSEED
  5
2FA0C
  9
$SURFTAB1
 70
     6
  9
$SURFTAB2
 70
     6
  9
$SURFTYPE
 70
     6
  9
$SURFU
 70
     6
  9
$SURFV
 70
     6
  9
$UCSNAME
  2

  9
$UCSORG
 10
0.0
 20
0.0
 30
0.0
  9
$UCSXDIR
 10
1.0
 20
0.0
 30
0.0
  9
$UCSYDIR
 10
0.0
 20
1.0
 30
0.0
  9
$PUCSNAME
  2

  9
$PUCSORG
 10
0.0
 20
0.0
 30
0.0
  9
$PUCSXDIR
 10
1.0
 20
0.0
 30
0.0
  9
$PUCSYDIR
 10
0.0
 20
1.0
 30
0.0
  9
$USERI1
 70
     0
  9
$USERI2
 70
     0
  9
$USERI3
 70
     0
  9
$USERI4
 70
     0
  9
$USERI5
 70
     0
  9
$USERR1
 40
0.0
  9
$USERR2
 40
0.0
  9
$USERR3
 40
0.0
  9
$USERR4
 40
0.0
  9
$USERR5
 40
0.0
  9
$WORLDVIEW
 70
     1
  9
$SHADEDGE
 70
     3
  9
$SHADEDIF
 70
    70
  9
$TILEMODE
 70
     1
  9
$MAXACTVP
 70
    64
  9
$PLIMCHECK
 70
     0
  9
$PEXTMIN
 10
1.0000000000000000E+20
 20
1.0000000000000000E+20
 30
1.0000000000000000E+20
  9
$PEXTMAX
 10
-1.0000000000000000E+20
 20
-1.0000000000000000E+20
 30
-1.0000000000000000E+20
  9
$PLIMMIN
 10
0.0
 20
0.0
  9
$PLIMMAX
 10
12.0
 20
9.0
  9
$UNITMODE
 70
     0
  9
$VISRETAIN
 70
     1
  9
$PLINEGEN
 70
     0
  9
$PSLTSCALE
 70
     1
  0
ENDSEC
  0
SECTION
  2
TABLES
  0
TABLE
  2
VPORT
 70
     1
  0
VPORT
  2
*ACTIVE
 70
     0
 10
0.0
 20
0.0
 11
1.0
 21
1.0
 12
2716.3705296499470023
 22
162.4233162645629136
 13
0.0
 23
0.0
 14
1.0
 24
1.0
 15
0.0
 25
0.0
 16
0.0
 26
0.0
 36
60.4960186965801583
 17
3911.3653564453120453
 27
132.5796051025390057
 37
0.0
 40
7.5997633784384666
 41
2.21775147928994
 42
50.0
 43
0.0
 44
0.0
 50
0.0
 51
0.0
 71
     0
 72
   100
 73
     1
 74
     1
 75
     0
 76
     0
 77
     0
 78
     0
  0
ENDTAB
  0
TABLE
  2
LTYPE
 70
     2
  0
LTYPE
  2
CONTINUOUS
 70
     0
  3
Solid line
 72
    65
 73
     0
 40
0.0
  0
LTYPE
  2
PHANTOM2
 70
     0
  3
___ _ _ ___ _ _ ___ _ _ ___ _ _
 72
    65
 73
     6
 40
1.25
 49
0.625
 49
-0.125
 49
0.125
 49
-0.125
 49
0.125
 49
-0.125
  0
ENDTAB
  0
TABLE
  2
LAYER
 70
     2
  0
LAYER
  2
0
 70
     0
 62
   255
  6
CONTINUOUS
  0
LAYER
  2
DEFPOINTS
 70
     0
 62
     7
  6
CONTINUOUS
  0
ENDTAB
  0
TABLE
  2
STYLE
 70
     1
  0
STYLE
  2
STANDARD
 70
     0
 40
0.0
 41
0.8
 50
0.0
 71
     0
 42
0.2
  3
txt
  4

  0
ENDTAB
  0
TABLE
  2
VIEW
 70
     0
  0
ENDTAB
  0
TABLE
  2
UCS
 70
     0
  0
ENDTAB
  0
TABLE
  2
APPID
 70
    11
  0
APPID
  2
ACAD
 70
     0
  0
APPID
  2
ACAD_MLEADERVER
 70
     0
  0
APPID
  2
ACAD_EXEMPT_FROM_CAD_STANDARDS
 70
     0
  0
APPID
  2
ACAD_NAV_VCDISPLAY
 70
     0
  0
APPID
  2
ACAECLAYERSTANDARD
 70
     0
  0
APPID
  2
ACCMTRANSPARENCY
 70
     0
  0
APPID
  2
ACAD_DSTYLE_DIMJAG
 70
     0
  0
APPID
  2
ACAD_DSTYLE_DIMTALN
 70
     0
  0
APPID
  2
ACDBATTR
 70
     0
  0
APPID
  2
ACADANNOTATIVE
 70
     0
  0
APPID
  2
DCO15
 70
     0
  0
ENDTAB
  0
TABLE
  2
DIMSTYLE
 70
     1
  0
DIMSTYLE
  2
STANDARD
 70
     0
  3

  4

  5

  6

  7

 40
1.0
 41
0.1875
 42
0.0625
 43
0.38
 44
0.125
 45
0.0
 46
0.0
 47
0.01
 48
0.01
140
0.15625
141
0.09
142
0.0
143
25.3999999999999986
144
1.0
145
0.0
146
1.0
147
0.09
 71
     1
 72
     0
 73
     1
 74
     1
 75
     0
 76
     0
 77
     0
 78
     4
170
     0
171
     2
172
     0
173
     0
174
     0
175
     0
176
     0
177
     0
178
     0
  0
ENDTAB
  0
ENDSEC
  0
SECTION
  2
BLOCKS
  0
BLOCK
  8
0
  2
$MODEL_SPACE
 70
     0
 10
0.0
 20
0.0
 30
0.0
  3
$MODEL_SPACE
  1

  0
ENDBLK
  5
21
  8
0
  0
BLOCK
 67
     1
  8
0
  2
$PAPER_SPACE
 70
     0
 10
0.0
 20
0.0
 30
0.0
  3
$PAPER_SPACE
  1

  0
ENDBLK
  5
1D
 67
     1
  8
0
  0
BLOCK
  8
0
  2
_FILLED
 70
     0
 10
0.0
 20
0.0
 30
0.0
  3
_FILLED
  1

  0
SOLID
  5
2E9D1
  8
0
  6
BYBLOCK
 62
     0
 10
0.0
 20
0.0
 30
0.0
 11
-1.0
 21
0.1666666667
 31
0.0
 12
-1.0
 22
-0.1666666667
 32
0.0
 13
-1.0
 23
-0.1666666667
 33
0.0
  0
ENDBLK
  5
2E9D2
  8
0
  6
BYBLOCK
 62
     0
  0
ENDSEC
  0
SECTION
  2
ENTITIES
  0
ATTDEF
  5
26A5B
  8
DEFPOINTS
 10
6630.6882648688942936
 20
291.2331327414219118
 30
0.0
 40
0.001
  1
P34582-BN
  3

  2
MODELNUMBER
 70
     0
1001
ACDBATTR
1070
     0
1070
     1
  0
ATTDEF
  5
26A5C
  8
DEFPOINTS
 10
6630.6881390592370735
 20
291.2314659010427818
 30
0.0
 40
0.001
  1
VICE
  3

  2
TRADENAME
 70
     0
1001
ACDBATTR
1070
     0
1070
     1
  0
ATTDEF
  5
26A5D
  8
DEFPOINTS
 10
6630.6882648688942936
 20
291.2297994080885815
 30
0.0
 40
0.001
  1
BATHROOM SINK FAUCET
  3

  2
PRODUCT
 70
     0
1001
ACDBATTR
1070
     0
1070
     1
  0
LINE
  5
2F537
  8
0
 10
6624.1989956954103036
 20
298.7760433261154844
 30
0.0
 11
6629.7269987185636637
 21
298.7760433261154844
 31
0.0
  0
LINE
  5
2F538
  8
0
 10
6624.8967579001100603
 20
297.6736948545154746
 30
0.0
 11
6627.8592962034854281
 21
297.6736948545154746
 31
0.0
  0
LINE
  5
2F539
  8
0
 10
6623.764364237906193
 20
297.0618700977154845
 30
0.0
 11
6624.6335893576160743
 21
297.0618700977154845
 31
0.0
  0
LINE
  5
2F53A
  8
0
 10
6623.6477956954086039
 20
297.1784386402104019
 30
0.0
 11
6623.6477956954086039
 21
298.2248433261154901
 31
0.0
  0
LINE
  5
2F53B
  8
0
 10
6623.7360799666575986
 20
297.0735858264681042
 30
0.0
 11
6623.6595114241617921
 21
297.1501543689630012
 31
0.0
  0
LINE
  5
2F53C
  8
0
 10
6624.7501579001091159
 20
297.1784386402104019
 30
0.0
 11
6624.7501579001091159
 21
297.5270948545154965
 31
0.0
  0
LINE
  5
2F53D
  8
0
 10
6624.6618736288628497
 20
297.0735858264681042
 30
0.0
 11
6624.7384421713568372
 21
297.1501543689630012
 31
0.0
  0
ARC
  5
2F53E
  8
0
 10
6623.764364237906193
 20
297.1018700977155049
 30
0.0
 40
0.04
 50
224.9999999999953957
 51
270.0
  0
ARC
  5
2F53F
  8
0
 10
6623.6877956954085676
 20
297.1784386402104019
 30
0.0
 40
0.04
 50
179.9999999999967031
 51
224.9999999999953957
  0
ARC
  5
2F540
  8
0
 10
6624.6335893576160743
 20
297.1018700977155049
 30
0.0
 40
0.04
 50
270.0
 51
315.0000000000046043
  0
ARC
  5
2F541
  8
0
 10
6624.7101579001100617
 20
297.1784386402104019
 30
0.0
 40
0.04
 50
315.0000000000092086
 51
359.9999999999869829
  0
ARC
  5
2F542
  8
0
 10
6624.8967579001100603
 20
297.5270948545154965
 30
0.0
 40
0.1466
 50
90.0
 51
180.0
  0
ARC
  5
2F543
  8
0
 10
6624.1989956954103036
 20
298.2248433261154901
 30
0.0
 40
0.5512000000000001
 50
90.0
 51
180.0
  0
LINE
  5
2F544
  8
0
 10
6623.6595114241617921
 20
297.1501543689630012
 30
0.0
 11
6624.7384421713568372
 21
297.1501543689630012
 31
0.0
  0
LINE
  5
2F545
  8
0
 10
6627.8901500087558816
 20
297.6849247212493879
 30
0.0
 11
6628.4911040775596121
 21
298.1891850588577881
 31
0.0
  0
ARC
  5
2F546
  8
0
 10
6627.8592962034854281
 20
297.7216948545154764
 30
0.0
 40
0.048
 50
270.0
 51
310.0000000066880261
  0
LINE
  5
2F547
  8
0
 10
6628.9612389353496837
 20
298.360300153215519
 30
0.0
 11
6630.7304147264139829
 21
298.360300153215519
 31
0.0
  0
ARC
  5
2F548
  8
0
 10
6628.9612389353496837
 20
297.6289001532155112
 30
0.0
 40
0.7314000000000001
 50
90.0
 51
130.0000000066901009
  0
LINE
  5
2F549
  8
0
 10
6630.8344147264151616
 20
298.2563001532154772
 30
0.0
 11
6630.8344147264151616
 21
296.4660868808795158
 31
0.0
  0
ARC
  5
2F54A
  8
0
 10
6630.7304147264139829
 20
298.2563001532154772
 30
0.0
 40
0.104
 50
359.9999999999968168
 51
90.0
  0
LINE
  5
2F54B
  8
0
 10
6630.7155983820139227
 20
298.0445838080154886
 30
0.0
 11
6630.7155983820139227
 21
296.2429941401205724
 31
0.0
  0
LINE
  5
2F54C
  8
0
 10
6628.7171087141223325
 20
298.2414838080154027
 30
0.0
 11
6630.5186983820121895
 21
298.2414838080154027
 31
0.0
  0
ARC
  5
2F54D
  8
0
 10
6628.7171087141223325
 20
297.7917838080155093
 30
0.0
 40
0.4497
 50
90.0
 51
130.0000000066901009
  0
ARC
  5
2F54E
  8
0
 10
6630.5186983820121895
 20
298.0445838080154886
 30
0.0
 40
0.1969
 50
0.0
 51
90.0
  0
LINE
  5
2F54F
  8
0
 10
6629.9657723064356105
 20
297.7917913576155229
 30
0.0
 11
6628.0550185957436042
 21
297.7917913576155229
 31
0.0
  0
ARC
  5
2F550
  8
0
 10
6628.0550185957436042
 20
297.8017913576155138
 30
0.0
 40
0.01
 50
129.9999999985838883
 51
270.0
  0
LINE
  5
2F551
  8
0
 10
6630.220712507945791
 20
297.6007643087783094
 30
0.0
 11
6630.0748788827731914
 21
297.7465979339525006
 31
0.0
  0
LINE
  5
2F552
  8
0
 10
6630.2659059316101775
 20
297.491657732441297
 30
0.0
 11
6630.2659059316101775
 21
295.5809040217495181
 31
0.0
  0
ARC
  5
2F553
  8
0
 10
6630.1116059316100291
 20
297.491657732441297
 30
0.0
 40
0.1543
 50
0.0
 51
44.9999999999907772
  0
ARC
  5
2F554
  8
0
 10
6629.9657723064356105
 20
297.6374913576154881
 30
0.0
 40
0.1543
 50
44.9999999999907772
 51
90.0
  0
LINE
  5
2F555
  8
0
 10
6628.6974090723906556
 20
298.2248622237154905
 30
0.0
 11
6630.5020767977102878
 21
298.2248622237154905
 31
0.0
  0
ARC
  5
2F556
  8
0
 10
6628.7074441875111006
 20
297.7748622237155018
 30
0.0
 40
0.45
 50
90.0
 51
129.9999999985838883
  0
ARC
  5
2F557
  8
0
 10
6628.6974090723906556
 20
297.7748622237153882
 30
0.0
 40
0.45
 50
90.0
 51
130.0000000066901009
  0
LINE
  5
2F558
  8
0
 10
6630.6989767977102019
 20
298.0279622237155195
 30
0.0
 11
6630.6989767977102019
 21
296.233329613478702
 31
0.0
  0
ARC
  5
2F559
  8
0
 10
6630.5020767977102878
 20
298.0279622237155195
 30
0.0
 40
0.1969
 50
0.0
 51
90.0
  0
LINE
  5
2F55A
  8
0
 10
6630.3689321658812332
 20
297.5342497549588074
 30
0.0
 11
6630.3689321658812332
 21
295.700195341064898
 31
0.0
  0
ARC
  5
2F55B
  8
0
 10
6630.2144321658797708
 20
297.5342497549588074
 30
0.0
 40
0.1545
 50
0.0
 51
44.9999999999953886
  0
LINE
  5
2F55C
  8
0
 10
6630.6768222633172627
 20
296.0331051470149077
 30
0.0
 11
6630.1587916065809623
 21
295.41574025072822
 31
0.0
  0
ARC
  5
2F55D
  8
0
 10
6630.2658983820119829
 20
296.2429941401205724
 30
0.0
 40
0.4497
 50
320.0000000022383233
 51
0.0
  0
ARC
  5
2F55E
  8
0
 10
6630.160814726415083
 20
296.4660868808795158
 30
0.0
 40
0.6736
 50
320.0000000022383233
 51
0.0
  0
LINE
  5
2F55F
  8
0
 10
6630.1477956954104229
 20
295.3855292330744078
 30
0.0
 11
6630.1477956954104229
 21
291.5680742237154845
 31
0.0
  0
ARC
  5
2F560
  8
0
 10
6630.1947956954090841
 20
295.3855292330744078
 30
0.0
 40
0.047
 50
140.0000000022334063
 51
180.0000000000098055
  0
LINE
  5
2F561
  8
0
 10
6629.9947313653210585
 20
291.5680742237154845
 30
0.0
 11
6631.4032216248988334
 21
291.5680742237154845
 31
0.0
  0
LINE
  5
2F562
  8
0
 10
6629.5739764951085817
 20
291.2348622505155049
 30
0.0
 11
6631.8239764951104007
 21
291.2348622505155049
 31
0.0
  0
LINE
  5
2F563
  8
0
 10
6629.5739764951085817
 20
291.4410484186695953
 30
0.0
 11
6629.5739764951085817
 21
291.2348622505155049
 31
0.0
  0
LINE
  5
2F564
  8
0
 10
6629.9484541971542058
 20
291.5625616220120264
 30
0.0
 11
6629.6041210614766896
 21
291.4793458983289156
 31
0.0
  0
ARC
  5
2F565
  8
0
 10
6629.9947313653210585
 20
291.3710742237154818
 30
0.0
 40
0.197
 50
90.0
 51
103.5862871736177055
  0
ARC
  5
2F566
  8
0
 10
6629.6133764951109697
 20
291.4410484186695953
 30
0.0
 40
0.0394
 50
103.5862871736177055
 51
180.0000000000032117
  0
LINE
  5
2F567
  8
0
 10
6629.6041210614766896
 20
291.4793458983289156
 30
0.0
 11
6631.7938319287432023
 21
291.4793458983289156
 31
0.0
  0
LINE
  5
2F568
  8
0
 10
6631.2501572948085595
 20
297.2528844938402131
 30
0.0
 11
6631.2501572948085595
 21
291.5680742237154845
 31
0.0
  0
LINE
  5
2F569
  8
0
 10
6631.8239764951104007
 20
291.4410484186695953
 30
0.0
 11
6631.8239764951104007
 21
291.2348622505155049
 31
0.0
  0
LINE
  5
2F56A
  8
0
 10
6631.4494987930665957
 20
291.5625616220120264
 30
0.0
 11
6631.7938319287432023
 21
291.4793458983289156
 31
0.0
  0
ARC
  5
2F56B
  8
0
 10
6631.4032216248988334
 20
291.3710742237154818
 30
0.0
 40
0.197
 50
76.4137128263823229
 51
90.0
  0
ARC
  5
2F56C
  8
0
 10
6631.7845764951098317
 20
291.4410484186695953
 30
0.0
 40
0.0394
 50
359.9999999999968168
 51
76.4137128263823229
  0
LINE
  5
2F56D
  8
0
 10
6629.7443195642517821
 20
298.7660427413305797
 30
0.0
 11
6629.7532108643717947
 21
298.7506413569453798
 31
0.0
  0
ARC
  5
2F56E
  8
0
 10
6629.7269987185636637
 20
298.7560433261155026
 30
0.0
 40
0.02
 50
29.9980655659751392
 51
90.0
  0
LINE
  5
2F56F
  8
0
 10
6630.7025133235101748
 20
298.7713987494154821
 30
0.0
 11
6630.2121491915404476
 21
298.7713987494154821
 31
0.0
  0
LINE
  5
2F570
  8
0
 10
6629.9782014231059293
 20
298.7713987494154821
 30
0.0
 11
6629.7712351515338014
 21
298.7713987494154821
 31
0.0
  0
ARC
  5
2F571
  8
0
 10
6629.7775450872468355
 20
298.7509624376683064
 30
0.0
 40
0.0213882707696689
 50
107.1586471415239004
 51
188.9713060216446934
  0
LINE
  5
2F572
  8
0
 10
6629.915401969667073
 20
298.6979668549154781
 30
0.0
 11
6630.6990814289110858
 21
298.6979668549154781
 31
0.0
  0
LINE
  5
2F573
  8
0
 10
6629.9063376018411873
 20
298.7126135719154831
 30
0.0
 11
6630.7025281376099883
 21
298.7126135719154831
 31
0.0
  0
ARC
  5
2F574
  8
0
 10
6629.7984967663942371
 20
298.7956191579048095
 30
0.0
 40
0.0638264482873405
 50
224.8044305590711076
 51
235.6379064098707943
  0
ARC
  5
2F575
  8
0
 10
6629.8612548168339345
 20
298.8874051855756875
 30
0.0
 40
0.1750165907043134
 50
235.6379064098707943
 51
242.965527451470507
  0
ARC
  5
2F576
  8
0
 10
6629.9091998245921786
 20
298.9813627676110173
 30
0.0
 40
0.280500006419132
 50
242.965527451470507
 51
251.1036268787053132
  0
ARC
  5
2F577
  8
0
 10
6629.9314289424637536
 20
299.0463021214878836
 30
0.0
 40
0.3491385769413862
 50
251.1036268787053132
 51
258.9054451874487768
  0
ARC
  5
2F578
  8
0
 10
6629.925742863945743
 20
299.0219787421165165
 30
0.0
 40
0.3241768608985344
 50
259.0643888487614959
 51
268.1720159686428815
  0
ARC
  5
2F579
  8
0
 10
6585.8711545542473687
 20
274.3433635155986963
 30
0.0
 40
50.2431910980988334
 50
29.0703173477747505
 51
29.0908565135287809
  0
ARC
  5
2F57A
  8
0
 10
6629.842595664905275
 20
298.8056868358384008
 30
0.0
 40
0.076355949739749
 50
220.934946329969506
 51
248.7360402685781935
  0
ARC
  5
2F57B
  8
0
 10
6629.9223546970279131
 20
298.9811291932156223
 30
0.0
 40
0.2689929110969316
 50
246.455862739538702
 51
266.5863222217582233
  0
LINE
  5
2F57C
  8
0
 10
6631.1867281376098617
 20
298.228413571915496
 30
0.0
 11
6631.1867281376098617
 21
297.4325659147003194
 31
0.0
  0
LINE
  5
2F57D
  8
0
 10
6631.1720814289110422
 20
298.2249668549155217
 30
0.0
 11
6631.1720814289110422
 21
297.4372035162155044
 31
0.0
  0
ARC
  5
2F57E
  8
0
 10
6630.7025281376099883
 20
298.228413571915496
 30
0.0
 40
0.4842000000000001
 50
0.0
 51
90.0
  0
ARC
  5
2F57F
  8
0
 10
6630.6990814289110858
 20
298.2249668549155217
 30
0.0
 40
0.473
 50
0.0
 51
90.0
  0
LINE
  5
2F580
  8
0
 10
6631.2401566833696052
 20
297.2702053549165839
 30
0.0
 11
6631.2241722271646722
 21
297.2794332326644735
 31
0.0
  0
ARC
  5
2F581
  8
0
 10
6631.230157294809942
 20
297.2528844938402131
 30
0.0
 40
0.02
 50
359.9999999999968168
 51
60.0020226070200167
  0
ARC
  5
2F582
  8
0
 10
6631.5450885540049057
 20
297.4586797909611278
 30
0.0
 40
0.3736248730325975
 50
183.2952263246646112
 51
190.6728515973229889
  0
ARC
  5
2F583
  8
0
 10
6631.500424224956987
 20
297.4519633378167782
 30
0.0
 40
0.3284935667412489
 50
190.9644157086981124
 51
199.2338634804333992
  0
ARC
  5
2F584
  8
0
 10
6631.4674420162828028
 20
297.4404558556586267
 30
0.0
 40
0.2935615150598853
 50
199.2338634804333992
 51
207.7717893448185009
  0
ARC
  5
2F585
  8
0
 10
6631.3233639807258442
 20
297.3645827609356047
 30
0.0
 40
0.1307266083829174
 50
207.7717893448156019
 51
220.6438979001268876
  0
LINE
  5
2F586
  8
0
 10
6631.2455133235098401
 20
297.3013522311915722
 30
0.0
 11
6631.2455133235098401
 21
297.5054103953430058
 31
0.0
  0
LINE
  5
2F587
  8
0
 10
6631.2455133235098401
 20
297.7357353208882955
 30
0.0
 11
6631.2455133235098401
 21
298.2283987494154758
 31
0.0
  0
ARC
  5
2F588
  8
0
 10
6631.2254932649739203
 20
297.3020820737258987
 30
0.0
 40
0.0200333575297299
 50
259.0564053148248718
 51
357.912174601782624
  0
ARC
  5
2F589
  8
0
 10
6631.4927315849836305
 20
297.4542595139254217
 30
0.0
 40
0.3067714492131187
 50
184.0551034445103085
 51
194.9975551576503108
  0
ARC
  5
2F58A
  8
0
 10
6631.4215842883477308
 20
297.4365124476469191
 30
0.0
 40
0.2334585528139274
 50
195.3089469898519042
 51
204.4207830013677949
  0
ARC
  5
2F58B
  8
0
 10
6631.3230373777723798
 20
297.3917664777143273
 30
0.0
 40
0.1252287260117676
 50
204.4207830013708076
 51
213.7970329564581107
  0
ARC
  5
2F58C
  8
0
 10
6631.2556811977437974
 20
297.3463562885982014
 30
0.0
 40
0.0439961361780141
 50
213.446166275239591
 51
233.9215713977384894
  0
LINE
  5
2F58D
  8
0
 10
6631.2297722201046781
 20
297.3107980985953986
 30
0.0
 11
6631.2455133235098401
 21
297.3013522311915722
 31
0.0
  0
ARC
  5
2F58E
  8
0
 10
6630.7025133235101748
 20
298.2283987494154758
 30
0.0
 40
0.5430000000000001
 50
0.0
 51
90.0
  0
CIRCLE
  5
2F58F
  8
0
 10
6630.6989767977102019
 20
293.142877373315514
 30
0.0
 40
0.3969759595999997
  0
CIRCLE
  5
2F590
  8
0
 10
6630.6989767977102019
 20
293.142877373315514
 30
0.0
 40
0.5
  0
LINE
  5
2F591
  8
0
 10
6630.216902689609924
 20
291.5680742237154845
 30
0.0
 11
6630.216902689609924
 21
293.0101952181490788
 31
0.0
  0
LINE
  5
2F592
  8
0
 10
6630.3025272248523834
 20
291.5680742237154845
 30
0.0
 11
6630.3025272248523834
 21
292.8382009282449872
 31
0.0
  0
LINE
  5
2F593
  8
0
 10
6630.432433758614934
 20
291.5779508071768191
 30
0.0
 11
6630.4182250959438534
 21
292.7291401596697256
 31
0.0
  0
LINE
  5
2F594
  8
0
 10
6630.526420433567182
 20
291.5780742237154755
 30
0.0
 11
6630.526420433567182
 21
292.6735967523712247
 31
0.0
  0
ARC
  5
2F595
  8
0
 10
6630.4424329970042891
 20
291.5780742237154755
 30
0.0
 40
0.01
 50
180.707142631146894
 51
270.0
  0
ARC
  5
2F596
  8
0
 10
6630.5364204335683098
 20
291.5780742237154755
 30
0.0
 40
0.01
 50
180.0
 51
270.0
  0
LINE
  5
2F597
  8
0
 10
6631.181050300609968
 20
291.5680742237154845
 30
0.0
 11
6631.181050300609968
 21
293.0101952181490788
 31
0.0
  0
LINE
  5
2F598
  8
0
 10
6631.0954257653684181
 20
291.5680742237154845
 30
0.0
 11
6631.0954257653684181
 21
292.8382009282449872
 31
0.0
  0
LINE
  5
2F599
  8
0
 10
6630.9655192316049579
 20
291.5779508071768191
 30
0.0
 11
6630.9797278942769481
 21
292.7291401596697256
 31
0.0
  0
LINE
  5
2F59A
  8
0
 10
6630.8715325566518004
 20
291.5780742237154755
 30
0.0
 11
6630.8715325566518004
 21
292.6735967523712247
 31
0.0
  0
ARC
  5
2F59B
  8
0
 10
6630.9555199932156029
 20
291.5780742237154755
 30
0.0
 40
0.01
 50
270.0
 51
359.292857368853106
  0
ARC
  5
2F59C
  8
0
 10
6630.8615325566515821
 20
291.5780742237154755
 30
0.0
 40
0.01
 50
270.0
 51
0.0
  0
LINE
  5
2F59D
  8
0
 10
6623.8092384376195696
 20
298.6146005839054851
 30
0.0
 11
6624.7930953914692509
 21
297.6307560541147836
 31
0.0
  0
ARC
  5
2F59E
  8
0
 10
6630.095175307324098
 20
299.2964312882140803
 30
0.0
 40
0.5377632268292536
 50
257.5774822206029171
 51
282.4225177793970261
  0
ARC
  5
2F59F
  8
0
 10
6629.9782014231059293
 20
298.7653987494155103
 30
0.0
 40
0.006
 50
77.5774822206029739
 51
90.0
  0
ARC
  5
2F5A0
  8
0
 10
6630.2121491915404476
 20
298.7653987494155103
 30
0.0
 40
0.006
 50
90.0
 51
102.4225177793969976
  0
ARC
  5
2F5A1
  8
0
 10
6631.7684762817407318
 20
297.6205728581156222
 30
0.0
 40
0.5353540468232719
 50
167.7175911838195077
 51
192.282408816180407
  0
ARC
  5
2F5A2
  8
0
 10
6631.2395133235104367
 20
297.5054103953430058
 30
0.0
 40
0.006
 50
0.0
 51
12.2824088161804408
  0
ARC
  5
2F5A3
  8
0
 10
6631.2395133235104367
 20
297.7357353208882955
 30
0.0
 40
0.006
 50
347.7175911838132265
 51
0.0
  0
LINE
  5
2F5A4
  8
0
 10
6630.2835663760397438
 20
295.5744761456525111
 30
0.0
 11
6630.593696797105622
 21
295.9440751891111177
 31
0.0
  0
ARC
  5
2F5A5
  8
0
 10
6630.2759059316103958
 20
295.5809040217495181
 30
0.0
 40
0.01
 50
180.0
 51
319.9999999985778913
  0
ARC
  5
2F5A6
  8
0
 10
6630.2489767977085648
 20
296.233329613478702
 30
0.0
 40
0.45
 50
319.9999999985778913
 51
0.0
  0
LINE
  5
2F5A7
  8
0
 10
6630.5887554675528008
 20
295.9381863418636271
 30
0.0
 11
6630.5936967971083504
 21
295.9340400740168775
 31
0.0
  0
ARC
  5
2F5A8
  8
0
 10
6630.1689767977077281
 20
295.8945956370167778
 30
0.0
 40
0.3000000000024916
 50
320.0000000022383233
 51
331.902910817309305
  0
ARC
  5
2F5A9
  8
0
 10
6630.3814941129594445
 20
295.7070231545682191
 30
0.0
 40
0.0142976065007136
 50
208.5254718543966135
 51
275.4131745663402171
  0
LINE
  5
2F5AA
  8
0
 10
6630.1176123255163475
 20
297.849565590708778
 30
0.0
 11
6630.3236801635739539
 21
297.6434977526520242
 31
0.0
  0
ARC
  5
2F5AB
  8
0
 10
6630.0083643278230738
 20
297.7403175930155044
 30
0.0
 40
0.1545
 50
44.9999999999953886
 51
90.0
  0
LINE
  5
2F5AC
  8
0
 10
6630.0083643278230738
 20
297.8948175930154889
 30
0.0
 11
6628.1743811311844183
 21
297.8948175930154889
 31
0.0
  0
LINE
  5
2F5AD
  8
0
 10
6628.0485907196480184
 20
297.8094518020469081
 30
0.0
 11
6628.4181897631588072
 21
298.1195822231263151
 31
0.0
  0
ARC
  5
2F5AE
  8
0
 10
6628.1926688941102839
 20
297.6776867485145885
 30
0.0
 40
0.2000000000010973
 50
115.4087745225794066
 51
130.0000000066901009
  0
ARC
  5
2F5AF
  8
0
 10
6628.368710211009784
 20
297.6948622237151199
 30
0.0
 40
0.3000000000004492
 50
118.0970891722693068
 51
130.0000000066901009
  0
LINE
  5
2F5B0
  8
0
 10
6628.4081546480756515
 20
298.1195822231554757
 30
0.0
 11
6628.4123009158820423
 21
298.1146408935481986
 31
0.0
  0
ARC
  5
2F5B1
  8
0
 10
6628.1817777329451928
 20
297.9080682872308898
 30
0.0
 40
0.015175329149618
 50
178.4451589269129954
 51
240.8295333585753042
  0
ENDSEC
  0
EOF
