  0
SECTION
  2
HEADER
  9
$ACADVER
  1
AC1009
  9
$INSBASE
 10
6573.7967468846345582
 20
289.7055565256313798
 30
0.0
  9
$EXTMIN
 10
6572.5467468846345582
 20
289.7004692589442811
 30
0.0
  9
$EXTMAX
 10
6575.0467468846345582
 20
299.8362278310314082
 30
0.0
  9
$LIMMIN
 10
0.0
 20
0.0
  9
$LIMMAX
 10
11.6929133858000007
 20
8.2677165353999982
  9
$ORTHOMODE
 70
     0
  9
$REGENMODE
 70
     1
  9
$FILLMODE
 70
     1
  9
$QTEXTMODE
 70
     0
  9
$MIRRTEXT
 70
     0
  9
$DRAGMODE
 70
     2
  9
$LTSCALE
 40
0.6431102362
  9
$OSMODE
 70
  4095
  9
$ATTMODE
 70
     1
  9
$TEXTSIZE
 40
0.2
  9
$TRACEWID
 40
0.05
  9
$TEXTSTYLE
  7
STANDARD
  9
$CLAYER
  8
0
  9
$CELTYPE
  6
BYLAYER
  9
$CECOLOR
 62
   256
  9
$DIMSCALE
 40
1.0
  9
$DIMASZ
 40
0.1875
  9
$DIMEXO
 40
0.0625
  9
$DIMDLI
 40
0.4443307087
  9
$DIMRND
 40
0.0
  9
$DIMDLE
 40
0.0
  9
$DIMEXE
 40
0.125
  9
$DIMTP
 40
0.01
  9
$DIMTM
 40
0.01
  9
$DIMTXT
 40
2.0
  9
$DIMCEN
 40
0.1052362205
  9
$DIMTSZ
 40
0.0
  9
$DIMTOL
 70
     1
  9
$DIMLIM
 70
     0
  9
$DIMTIH
 70
     1
  9
$DIMTOH
 70
     1
  9
$DIMSE1
 70
     0
  9
$DIMSE2
 70
     0
  9
$DIMTAD
 70
     0
  9
$DIMZIN
 70
     0
  9
$DIMBLK
  1

  9
$DIMASO
 70
     1
  9
$DIMSHO
 70
     1
  9
$DIMPOST
  1
\X
  9
$DIMAPOST
  1

  9
$DIMALT
 70
     1
  9
$DIMALTD
 70
     2
  9
$DIMALTF
 40
25.3999999999999986
  9
$DIMLFAC
 40
1.0
  9
$DIMTOFL
 70
     0
  9
$DIMTVP
 40
0.0
  9
$DIMTIX
 70
     0
  9
$DIMSOXD
 70
     0
  9
$DIMSAH
 70
     0
  9
$DIMBLK1
  1

  9
$DIMBLK2
  1

  9
$DIMSTYLE
  2
STANDARD
  9
$DIMCLRD
 70
     0
  9
$DIMCLRE
 70
     0
  9
$DIMCLRT
 70
     0
  9
$DIMTFAC
 40
1.0
  9
$DIMGAP
 40
0.09
  9
$LUNITS
 70
     2
  9
$LUPREC
 70
     4
  9
$SKETCHINC
 40
0.1
  9
$FILLETRAD
 40
0.0
  9
$AUNITS
 70
     0
  9
$AUPREC
 70
     0
  9
$MENU
  1
.
  9
$ELEVATION
 40
0.0
  9
$PELEVATION
 40
0.0
  9
$THICKNESS
 40
0.0
  9
$LIMCHECK
 70
     0
  9
$BLIPMODE
 70
     0
  9
$CHAMFERA
 40
0.0
  9
$CHAMFERB
 40
0.0
  9
$SKPOLY
 70
     0
  9
$TDCREATE
 40
2458060.468368056230247
  9
$TDUPDATE
 40
2460700.679699074011296
  9
$TDINDWG
 40
0.8310255787
  9
$TDUSRTIMER
 40
0.8310255787
  9
$USRTIMER
 70
     1
  9
$ANGBASE
 50
0.0
  9
$ANGDIR
 70
     0
  9
$PDMODE
 70
     0
  9
$PDSIZE
 40
0.3125
  9
$PLINEWID
 40
0.0
  9
$COORDS
 70
     1
  9
$SPLFRAME
 70
     0
  9
$SPLINETYPE
 70
     6
  9
$SPLINESEGS
 70
     8
  9
$ATTDIA
 70
     1
  9
$ATTREQ
 70
     1
  9
$HANDLING
 70
     1
  9
$HANDSEED
  5
2EE48
  9
$SURFTAB1
 70
     6
  9
$SURFTAB2
 70
     6
  9
$SURFTYPE
 70
     6
  9
$SURFU
 70
     6
  9
$SURFV
 70
     6
  9
$UCSNAME
  2

  9
$UCSORG
 10
0.0
 20
0.0
 30
0.0
  9
$UCSXDIR
 10
1.0
 20
0.0
 30
0.0
  9
$UCSYDIR
 10
0.0
 20
1.0
 30
0.0
  9
$PUCSNAME
  2

  9
$PUCSORG
 10
0.0
 20
0.0
 30
0.0
  9
$PUCSXDIR
 10
1.0
 20
0.0
 30
0.0
  9
$PUCSYDIR
 10
0.0
 20
1.0
 30
0.0
  9
$USERI1
 70
     0
  9
$USERI2
 70
     0
  9
$USERI3
 70
     0
  9
$USERI4
 70
     0
  9
$USERI5
 70
     0
  9
$USERR1
 40
0.0
  9
$USERR2
 40
0.0
  9
$USERR3
 40
0.0
  9
$USERR4
 40
0.0
  9
$USERR5
 40
0.0
  9
$WORLDVIEW
 70
     1
  9
$SHADEDGE
 70
     3
  9
$SHADEDIF
 70
    70
  9
$TILEMODE
 70
     1
  9
$MAXACTVP
 70
    64
  9
$PLIMCHECK
 70
     0
  9
$PEXTMIN
 10
1.0000000000000000E+20
 20
1.0000000000000000E+20
 30
1.0000000000000000E+20
  9
$PEXTMAX
 10
-1.0000000000000000E+20
 20
-1.0000000000000000E+20
 30
-1.0000000000000000E+20
  9
$PLIMMIN
 10
0.0
 20
0.0
  9
$PLIMMAX
 10
12.0
 20
9.0
  9
$UNITMODE
 70
     0
  9
$VISRETAIN
 70
     1
  9
$PLINEGEN
 70
     0
  9
$PSLTSCALE
 70
     1
  0
ENDSEC
  0
SECTION
  2
TABLES
  0
TABLE
  2
VPORT
 70
     1
  0
VPORT
  2
*ACTIVE
 70
     0
 10
0.0
 20
0.0
 11
1.0
 21
1.0
 12
2662.4313904393229677
 22
162.1887434424488106
 13
0.0
 23
0.0
 14
1.0
 24
1.0
 15
0.0
 25
0.0
 16
0.0
 26
0.0
 36
60.4960186965801583
 17
3911.3653564453120453
 27
132.5796051025390057
 37
0.0
 40
10.20504513673019
 41
2.1449438202247189
 42
50.0
 43
0.0
 44
0.0
 50
0.0
 51
0.0
 71
     0
 72
   100
 73
     1
 74
     1
 75
     0
 76
     0
 77
     0
 78
     0
  0
ENDTAB
  0
TABLE
  2
LTYPE
 70
     2
  0
LTYPE
  2
CONTINUOUS
 70
     0
  3
Solid line
 72
    65
 73
     0
 40
0.0
  0
LTYPE
  2
PHANTOM2
 70
     0
  3
___ _ _ ___ _ _ ___ _ _ ___ _ _
 72
    65
 73
     6
 40
1.25
 49
0.625
 49
-0.125
 49
0.125
 49
-0.125
 49
0.125
 49
-0.125
  0
ENDTAB
  0
TABLE
  2
LAYER
 70
     2
  0
LAYER
  2
0
 70
     0
 62
   255
  6
CONTINUOUS
  0
LAYER
  2
DEFPOINTS
 70
     0
 62
     7
  6
CONTINUOUS
  0
ENDTAB
  0
TABLE
  2
STYLE
 70
     1
  0
STYLE
  2
STANDARD
 70
     0
 40
0.0
 41
0.8
 50
0.0
 71
     0
 42
0.2
  3
txt
  4

  0
ENDTAB
  0
TABLE
  2
VIEW
 70
     0
  0
ENDTAB
  0
TABLE
  2
UCS
 70
     0
  0
ENDTAB
  0
TABLE
  2
APPID
 70
    11
  0
APPID
  2
ACAD
 70
     0
  0
APPID
  2
ACAD_MLEADERVER
 70
     0
  0
APPID
  2
ACAD_EXEMPT_FROM_CAD_STANDARDS
 70
     0
  0
APPID
  2
ACAD_NAV_VCDISPLAY
 70
     0
  0
APPID
  2
ACAECLAYERSTANDARD
 70
     0
  0
APPID
  2
ACCMTRANSPARENCY
 70
     0
  0
APPID
  2
ACAD_DSTYLE_DIMJAG
 70
     0
  0
APPID
  2
ACAD_DSTYLE_DIMTALN
 70
     0
  0
APPID
  2
ACDBATTR
 70
     0
  0
APPID
  2
ACADANNOTATIVE
 70
     0
  0
APPID
  2
DCO15
 70
     0
  0
ENDTAB
  0
TABLE
  2
DIMSTYLE
 70
     1
  0
DIMSTYLE
  2
STANDARD
 70
     0
  3

  4

  5

  6

  7

 40
1.0
 41
0.1875
 42
0.0625
 43
0.38
 44
0.125
 45
0.0
 46
0.0
 47
0.01
 48
0.01
140
0.15625
141
0.09
142
0.0
143
25.3999999999999986
144
1.0
145
0.0
146
1.0
147
0.09
 71
     1
 72
     0
 73
     1
 74
     1
 75
     0
 76
     0
 77
     0
 78
     4
170
     0
171
     2
172
     0
173
     0
174
     0
175
     0
176
     0
177
     0
178
     0
  0
ENDTAB
  0
ENDSEC
  0
SECTION
  2
BLOCKS
  0
BLOCK
  8
0
  2
$MODEL_SPACE
 70
     0
 10
0.0
 20
0.0
 30
0.0
  3
$MODEL_SPACE
  1

  0
ENDBLK
  5
21
  8
0
  0
BLOCK
 67
     1
  8
0
  2
$PAPER_SPACE
 70
     0
 10
0.0
 20
0.0
 30
0.0
  3
$PAPER_SPACE
  1

  0
ENDBLK
  5
1D
 67
     1
  8
0
  0
BLOCK
  8
0
  2
_FILLED
 70
     0
 10
0.0
 20
0.0
 30
0.0
  3
_FILLED
  1

  0
SOLID
  5
2E91C
  8
0
  6
BYBLOCK
 62
     0
 10
0.0
 20
0.0
 30
0.0
 11
-1.0
 21
0.1666666667
 31
0.0
 12
-1.0
 22
-0.1666666667
 32
0.0
 13
-1.0
 23
-0.1666666667
 33
0.0
  0
ENDBLK
  5
2E91D
  8
0
  6
BYBLOCK
 62
     0
  0
ENDSEC
  0
SECTION
  2
ENTITIES
  0
ATTDEF
  5
26A5B
  8
DEFPOINTS
 10
6573.7931000574681093
 20
289.7038025922776114
 30
0.0
 40
0.001
  1
P34583-CP
  3

  2
MODELNUMBER
 70
     0
1001
ACDBATTR
1070
     0
1070
     1
  0
ATTDEF
  5
26A5C
  8
DEFPOINTS
 10
6573.7929742478117987
 20
289.7021357518984814
 30
0.0
 40
0.001
  1
VICE
  3

  2
TRADENAME
 70
     0
1001
ACDBATTR
1070
     0
1070
     1
  0
ATTDEF
  5
26A5D
  8
DEFPOINTS
 10
6573.7931000574681093
 20
289.7004692589442811
 30
0.0
 40
0.001
  1
BATHROOM SINK FAUCET
  3

  2
PRODUCT
 70
     0
1001
ACDBATTR
1070
     0
1070
     1
  0
LINE
  5
2EA90
  8
0
 10
6572.9458407622341838
 20
290.1005565256314185
 30
0.0
 11
6574.6476530070349327
 21
290.1005565256314185
 31
0.0
  0
LINE
  5
2EA91
  8
0
 10
6572.5467468846345582
 20
289.7055565256313798
 30
0.0
 11
6575.0467468846345582
 21
289.7055565256313798
 31
0.0
  0
LINE
  5
2EA92
  8
0
 10
6572.5467468846345582
 20
289.9552431986352872
 30
0.0
 11
6572.5467468846345582
 21
289.7055565256313798
 31
0.0
  0
LINE
  5
2EA93
  8
0
 10
6572.9280614310628152
 20
290.097861807962488
 30
0.0
 11
6572.5699682524909804
 21
289.986761103917388
 31
0.0
  0
ARC
  5
2EA94
  8
0
 10
6572.9458407622341838
 20
290.0405565256314162
 30
0.0
 40
0.06
 50
90.0
 51
107.2368383877900015
  0
ARC
  5
2EA95
  8
0
 10
6572.5797468846349147
 20
289.9552431986352872
 30
0.0
 40
0.033
 50
107.2368383877900015
 51
180.0
  0
LINE
  5
2EA96
  8
0
 10
6573.0229268846342165
 20
290.1005565256314185
 30
0.0
 11
6573.0229268846342165
 21
298.4871265256314246
 31
0.0
  0
LINE
  5
2EA97
  8
0
 10
6573.0379268846354535
 20
298.5021265256314109
 30
0.0
 11
6574.5555668846345725
 21
298.5021265256314109
 31
0.0
  0
ARC
  5
2EA98
  8
0
 10
6573.0379268846354535
 20
298.4871265256314246
 30
0.0
 40
0.015
 50
90.0
 51
179.9999999999901945
  0
LINE
  5
2EA99
  8
0
 10
6573.0241318830348973
 20
298.5582278310313882
 30
0.0
 11
6574.5693618862351286
 21
298.5582278310313882
 31
0.0
  0
ARC
  5
2EA9A
  8
0
 10
6573.6312169288348741
 20
298.4341265256314273
 30
0.0
 40
0.4934700442000002
 50
165.4344768320974026
 51
172.0794585129387997
  0
LINE
  5
2EA9B
  8
0
 10
6573.0091318830345699
 20
298.5732278310313745
 30
0.0
 11
6573.0091318830345699
 21
298.927054291957802
 31
0.0
  0
ARC
  5
2EA9C
  8
0
 10
6573.0241318830348973
 20
298.5732278310313745
 30
0.0
 40
0.015
 50
180.0000000000032117
 51
270.0
  0
LINE
  5
2EA9D
  8
0
 10
6573.0332466339441453
 20
298.9520386137224932
 30
0.0
 11
6573.1960954225069145
 21
298.9578087019954751
 31
0.0
  0
ARC
  5
2EA9E
  8
0
 10
6573.0341318830342061
 20
298.927054291957802
 30
0.0
 40
0.025
 50
92.0292656907568443
 51
179.9999999999901945
  0
LINE
  5
2EA9F
  8
0
 10
6573.0332466339441453
 20
298.9520386137224932
 30
0.0
 11
6574.5602471353267902
 21
298.9520386137224932
 31
0.0
  0
LINE
  5
2EAA0
  8
0
 10
6573.2896606560343571
 20
299.0547478704428954
 30
0.0
 11
6573.2896606560343571
 21
299.8223278310313731
 31
0.0
  0
ARC
  5
2EAA1
  8
0
 10
6573.1926606560346045
 20
299.0547478704428954
 30
0.0
 40
0.097
 50
272.0292656907568016
 51
0.0
  0
LINE
  5
2EAA2
  8
0
 10
6573.303560656035188
 20
299.8362278310314082
 30
0.0
 11
6574.2899331132339285
 21
299.8362278310314082
 31
0.0
  0
LINE
  5
2EAA3
  8
0
 10
6573.3064511416268942
 20
299.6225053715663194
 30
0.0
 11
6573.3769760775303439
 21
299.5387760219609277
 31
0.0
  0
ARC
  5
2EAA4
  8
0
 10
6573.3610606560350789
 20
299.6685027729731132
 30
0.0
 40
0.0714
 50
180.0000000000032117
 51
220.1073169141637891
  0
ARC
  5
2EAA5
  8
0
 10
6573.303560656035188
 20
299.8223278310313731
 30
0.0
 40
0.0139
 50
90.0
 51
179.9999999999934914
  0
LINE
  5
2EAA6
  8
0
 10
6573.4235547809958007
 20
299.5171090996313978
 30
0.0
 11
6574.1699389882742253
 21
299.5171090996313978
 31
0.0
  0
ARC
  5
2EAA7
  8
0
 10
6573.4235547809958007
 20
299.5780090996314016
 30
0.0
 40
0.0609
 50
220.1073169141662902
 51
270.0
  0
LINE
  5
2EAA8
  8
0
 10
6573.4840109473807388
 20
298.9854708112388835
 30
0.0
 11
6573.4841294760326491
 21
299.5007501240314127
 31
0.0
  0
LINE
  5
2EAA9
  8
0
 10
6573.4942294760330697
 20
299.5108501240313785
 30
0.0
 11
6574.0977962900342391
 21
299.5108501240313785
 31
0.0
  0
LINE
  5
2EAAA
  8
0
 10
6573.4961109473806573
 20
298.9733708112389081
 30
0.0
 11
6574.0956777613828308
 21
298.9733708112389081
 31
0.0
  0
LINE
  5
2EAAB
  8
0
 10
6573.6351624373337472
 20
298.9836708112389942
 30
0.0
 11
6573.6352809659856575
 21
299.5007501240314127
 31
0.0
  0
ARC
  5
2EAAC
  8
0
 10
6573.6454624373327533
 20
298.9836708112389942
 30
0.0
 40
0.0103
 50
180.0
 51
270.0
  0
ARC
  5
2EAAD
  8
0
 10
6573.4961109473806573
 20
298.9854708112388835
 30
0.0
 40
0.0121
 50
180.0000000000098055
 51
270.0
  0
ARC
  5
2EAAE
  8
0
 10
6573.6453809659842591
 20
299.5007501240314127
 30
0.0
 40
0.0101
 50
90.0
 51
180.0
  0
ARC
  5
2EAAF
  8
0
 10
6573.4942294760330697
 20
299.5007501240314127
 30
0.0
 40
0.0101
 50
90.0
 51
180.0
  0
ARC
  5
2EAB0
  8
0
 10
6573.7967468846345582
 20
296.8879565256314095
 30
0.0
 40
0.5511800000000007
 50
90.0
 51
180.0
  0
LINE
  5
2EAB1
  8
0
 10
6573.2455668846359913
 20
296.8879565256314095
 30
0.0
 11
6573.2455668846359913
 21
295.8365629326025896
 31
0.0
  0
LINE
  5
2EAB2
  8
0
 10
6573.3729932916057805
 20
295.7091365256313793
 30
0.0
 11
6574.2205004776642454
 21
295.7091365256313793
 31
0.0
  0
LINE
  5
2EAB3
  8
0
 10
6573.2543536811990634
 20
295.8153497291669964
 30
0.0
 11
6573.3517800881700168
 21
295.7179233221958157
 31
0.0
  0
ARC
  5
2EAB4
  8
0
 10
6573.2755668846348271
 20
295.8365629326025896
 30
0.0
 40
0.03
 50
179.9999999999967031
 51
224.9999999999953957
  0
ARC
  5
2EAB5
  8
0
 10
6573.3729932916057805
 20
295.7391365256314089
 30
0.0
 40
0.03
 50
224.9999999999953957
 51
270.0
  0
LINE
  5
2EAB6
  8
0
 10
6573.2517982656763706
 20
295.8182584863441207
 30
0.0
 11
6574.3416955035918363
 21
295.8182584863441207
 31
0.0
  0
LINE
  5
2EAB7
  8
0
 10
6575.0467468846345582
 20
289.9552431986352872
 30
0.0
 11
6575.0467468846345582
 21
289.7055565256313798
 31
0.0
  0
LINE
  5
2EAB8
  8
0
 10
6574.6654323382072107
 20
290.097861807962488
 30
0.0
 11
6575.0235255167799551
 21
289.986761103917388
 31
0.0
  0
ARC
  5
2EAB9
  8
0
 10
6574.6476530070349327
 20
290.0405565256314162
 30
0.0
 40
0.06
 50
72.7631616122099416
 51
90.0
  0
ARC
  5
2EABA
  8
0
 10
6575.0137468846351112
 20
289.9552431986352872
 30
0.0
 40
0.033
 50
0.0
 51
72.7631616122099416
  0
LINE
  5
2EABB
  8
0
 10
6574.5705668846348999
 20
290.1005565256314185
 30
0.0
 11
6574.5705668846348999
 21
298.4871265256314246
 31
0.0
  0
ARC
  5
2EABC
  8
0
 10
6574.5555668846345725
 20
298.4871265256314246
 30
0.0
 40
0.015
 50
0.0000000000097707
 51
90.0
  0
ARC
  5
2EABD
  8
0
 10
6573.9622768404342423
 20
298.4341265256314273
 30
0.0
 40
0.4934700442000002
 50
7.9205414870612429
 51
14.5655231679025405
  0
LINE
  5
2EABE
  8
0
 10
6574.5843618862345465
 20
298.5732278310313745
 30
0.0
 11
6574.5843618862345465
 21
298.927054291957802
 31
0.0
  0
ARC
  5
2EABF
  8
0
 10
6574.5693618862351286
 20
298.5732278310313745
 30
0.0
 40
0.015
 50
270.0
 51
359.9999999999968168
  0
LINE
  5
2EAC0
  8
0
 10
6574.5602471353267902
 20
298.9520386137224932
 30
0.0
 11
6574.397398346762202
 21
298.9578087019954751
 31
0.0
  0
ARC
  5
2EAC1
  8
0
 10
6574.5593618862340008
 20
298.927054291957802
 30
0.0
 40
0.025
 50
0.0000000000097707
 51
87.9707343092431415
  0
LINE
  5
2EAC2
  8
0
 10
6574.3038331132347594
 20
299.0547478704428954
 30
0.0
 11
6574.3038331132347594
 21
299.8223278310313731
 31
0.0
  0
ARC
  5
2EAC3
  8
0
 10
6574.4008331132354215
 20
299.0547478704428954
 30
0.0
 40
0.097
 50
180.0
 51
267.9707343092430847
  0
LINE
  5
2EAC4
  8
0
 10
6574.2870426276422222
 20
299.6225053715663194
 30
0.0
 11
6574.2165176917378631
 21
299.5387760219609277
 31
0.0
  0
ARC
  5
2EAC5
  8
0
 10
6574.2324331132349471
 20
299.6685027729731132
 30
0.0
 40
0.0714
 50
319.8926830858362109
 51
359.9999999999968168
  0
ARC
  5
2EAC6
  8
0
 10
6574.2899331132339285
 20
299.8223278310313731
 30
0.0
 40
0.0139
 50
0.0000000000065138
 51
90.0
  0
ARC
  5
2EAC7
  8
0
 10
6574.1699389882742253
 20
299.5780090996314016
 30
0.0
 40
0.0609
 50
270.0
 51
319.8926830858335961
  0
LINE
  5
2EAC8
  8
0
 10
6574.1077777613818398
 20
298.9854708112388835
 30
0.0
 11
6574.1078962900328406
 21
299.5007501240314127
 31
0.0
  0
LINE
  5
2EAC9
  8
0
 10
6573.9566262714306504
 20
298.9836708112389942
 30
0.0
 11
6573.9567448000807417
 21
299.5007501240314127
 31
0.0
  0
ARC
  5
2EACA
  8
0
 10
6573.9463262714289158
 20
298.9836708112389942
 30
0.0
 40
0.0103
 50
270.0
 51
0.0
  0
ARC
  5
2EACB
  8
0
 10
6574.0956777613828308
 20
298.9854708112388835
 30
0.0
 40
0.0121
 50
270.0
 51
359.9999999999902229
  0
ARC
  5
2EACC
  8
0
 10
6573.9466448000812306
 20
299.5007501240314127
 30
0.0
 40
0.0101
 50
0.0
 51
90.0
  0
ARC
  5
2EACD
  8
0
 10
6574.0977962900342391
 20
299.5007501240314127
 30
0.0
 40
0.0101
 50
0.0
 51
90.0
  0
ARC
  5
2EACE
  8
0
 10
6573.7967468846345582
 20
296.8879565256314095
 30
0.0
 40
0.5511800000000007
 50
0.0
 51
90.0
  0
LINE
  5
2EACF
  8
0
 10
6574.3479268846358536
 20
296.8879565256314095
 30
0.0
 11
6574.3479268846358536
 21
295.8365629326025896
 31
0.0
  0
LINE
  5
2EAD0
  8
0
 10
6574.339140088070053
 20
295.8153497291669964
 30
0.0
 11
6574.2417136810981901
 21
295.7179233221958157
 31
0.0
  0
ARC
  5
2EAD1
  8
0
 10
6574.3179268846351988
 20
295.8365629326025896
 30
0.0
 40
0.03
 50
315.0000000000046043
 51
0.0000000000032569
  0
ARC
  5
2EAD2
  8
0
 10
6574.2205004776642454
 20
295.7391365256314089
 30
0.0
 40
0.03
 50
270.0
 51
315.0000000000046043
  0
LINE
  5
2EAD3
  8
0
 10
6572.5699682524909804
 20
289.986761103917388
 30
0.0
 11
6575.0235255167799551
 21
289.986761103917388
 31
0.0
  0
CIRCLE
  5
2EAD5
  8
0
 10
6573.7965555851342287
 20
299.2863974452313869
 30
0.0
 40
0.1158994948999998
  0
CIRCLE
  5
2EAD6
  8
0
 10
6573.7965555851342287
 20
299.2863974452313869
 30
0.0
 40
0.0984251969000001
  0
CIRCLE
  5
2EAD7
  8
0
 10
6573.7965555851342287
 20
299.2863974452313869
 30
0.0
 40
0.0468053359000002
  0
LINE
  5
2EAD8
  8
0
 10
6573.7964892233821956
 20
299.333202734086683
 30
0.0
 11
6573.7559878351339648
 21
299.3097426187936207
 31
0.0
  0
LINE
  5
2EAD9
  8
0
 10
6573.7559878351339648
 20
299.3097426187936207
 30
0.0
 11
6573.7560541423154064
 21
299.2629374239566005
 31
0.0
  0
LINE
  5
2EADA
  8
0
 10
6573.7560541423154064
 20
299.2629374239566005
 30
0.0
 11
6573.7965555851342287
 21
299.2395921093313973
 31
0.0
  0
LINE
  5
2EADB
  8
0
 10
6573.7965555851342287
 20
299.2395921093313973
 30
0.0
 11
6573.837090173409706
 21
299.2629947397888941
 31
0.0
  0
LINE
  5
2EADC
  8
0
 10
6573.837090195134806
 20
299.2629947774163952
 30
0.0
 11
6573.837090195134806
 21
299.3098001380313917
 31
0.0
  0
LINE
  5
2EADD
  8
0
 10
6573.837090195134806
 20
299.3098001380313917
 30
0.0
 11
6573.7966218383444357
 21
299.3332027342405013
 31
0.0
  0
LINE
  5
2EADE
  8
0
 10
6573.3055698902344375
 20
299.6647960450313803
 30
0.0
 11
6573.3752287682809765
 21
299.5822491044469871
 31
0.0
  0
ARC
  5
2EADF
  8
0
 10
6573.4205705730228146
 20
299.6205116884336803
 30
0.0
 40
0.0593287838293391
 50
220.1600121191117978
 51
269.993983686180286
  0
ARC
  5
2EAE0
  8
0
 10
6573.7962433594311733
 20
288.8084465121091853
 30
0.0
 40
10.7592971265196802
 50
87.9990158537793548
 51
92.000985564587495
  0
ARC
  5
2EAE1
  8
0
 10
6574.1719158765208704
 20
299.6205274739144215
 30
0.0
 40
0.0593445600102949
 50
270.0060177322073969
 51
319.8317087525110765
  0
ARC
  5
2EAE2
  8
0
 10
6288.5387897775690362
 20
540.7283970062433127
 30
0.0
 40
373.849777122801072
 50
319.8317087525110765
 51
319.8482554891269274
  0
ARC
  5
2EAE3
  8
0
 10
6574.2312608037200334
 20
299.711694266449399
 30
0.0
 40
0.0727861233673463
 50
319.8482554891269274
 51
355.6072384725923143
  0
ARC
  5
2EAE4
  8
0
 10
6573.3601116169247689
 20
299.710817906806426
 30
0.0
 40
0.0713639384530227
 50
189.1747105347953095
 51
220.1573986159349943
  0
LINE
  5
2EAE5
  8
0
 10
6573.1960954225069145
 20
298.9578087019954751
 30
0.0
 11
6573.4961109473806573
 21
298.9733708112389081
 31
0.0
  0
LINE
  5
2EAE6
  8
0
 10
6574.0956777613828308
 20
298.9733708112389081
 30
0.0
 11
6574.397398346762202
 21
298.9578087019954751
 31
0.0
  0
ENDSEC
  0
EOF
