  0
SECTION
  2
HEADER
  9
$ACADVER
  1
AC1009
  9
$INSBASE
 10
6586.4939278093352186
 20
293.9105088957771841
 30
0.0
  9
$EXTMIN
 10
6579.2605144108729291
 20
292.6395371831400212
 30
-0.0015258207003583
  9
$EXTMAX
 10
6593.8079582245318306
 20
295.1787382903826824
 30
0.0000000349246037
  9
$LIMMIN
 10
0.0
 20
0.0
  9
$LIMMAX
 10
11.6929133858000007
 20
8.2677165353999982
  9
$ORTHOMODE
 70
     0
  9
$REGENMODE
 70
     1
  9
$FILLMODE
 70
     1
  9
$QTEXTMODE
 70
     0
  9
$MIRRTEXT
 70
     0
  9
$DRAGMODE
 70
     2
  9
$LTSCALE
 40
0.6431102362
  9
$OSMODE
 70
  4095
  9
$ATTMODE
 70
     1
  9
$TEXTSIZE
 40
0.2
  9
$TRACEWID
 40
0.05
  9
$TEXTSTYLE
  7
STANDARD
  9
$CLAYER
  8
0
  9
$CELTYPE
  6
BYLAYER
  9
$CECOLOR
 62
   256
  9
$DIMSCALE
 40
1.0
  9
$DIMASZ
 40
0.1875
  9
$DIMEXO
 40
0.0625
  9
$DIMDLI
 40
0.4443307087
  9
$DIMRND
 40
0.0
  9
$DIMDLE
 40
0.0
  9
$DIMEXE
 40
0.125
  9
$DIMTP
 40
0.01
  9
$DIMTM
 40
0.01
  9
$DIMTXT
 40
2.0
  9
$DIMCEN
 40
0.1052362205
  9
$DIMTSZ
 40
0.0
  9
$DIMTOL
 70
     1
  9
$DIMLIM
 70
     0
  9
$DIMTIH
 70
     1
  9
$DIMTOH
 70
     1
  9
$DIMSE1
 70
     0
  9
$DIMSE2
 70
     0
  9
$DIMTAD
 70
     0
  9
$DIMZIN
 70
     0
  9
$DIMBLK
  1

  9
$DIMASO
 70
     1
  9
$DIMSHO
 70
     1
  9
$DIMPOST
  1
\X
  9
$DIMAPOST
  1

  9
$DIMALT
 70
     1
  9
$DIMALTD
 70
     2
  9
$DIMALTF
 40
25.3999999999999986
  9
$DIMLFAC
 40
1.0
  9
$DIMTOFL
 70
     0
  9
$DIMTVP
 40
0.0
  9
$DIMTIX
 70
     0
  9
$DIMSOXD
 70
     0
  9
$DIMSAH
 70
     0
  9
$DIMBLK1
  1

  9
$DIMBLK2
  1

  9
$DIMSTYLE
  2
STANDARD
  9
$DIMCLRD
 70
     0
  9
$DIMCLRE
 70
     0
  9
$DIMCLRT
 70
     0
  9
$DIMTFAC
 40
1.0
  9
$DIMGAP
 40
0.09
  9
$LUNITS
 70
     2
  9
$LUPREC
 70
     4
  9
$SKETCHINC
 40
0.1
  9
$FILLETRAD
 40
0.0
  9
$AUNITS
 70
     0
  9
$AUPREC
 70
     0
  9
$MENU
  1
.
  9
$ELEVATION
 40
0.0
  9
$PELEVATION
 40
0.0
  9
$THICKNESS
 40
0.0
  9
$LIMCHECK
 70
     0
  9
$BLIPMODE
 70
     0
  9
$CHAMFERA
 40
0.0
  9
$CHAMFERB
 40
0.0
  9
$SKPOLY
 70
     0
  9
$TDCREATE
 40
2458060.468368056230247
  9
$TDUPDATE
 40
2460692.5398032409138978
  9
$TDINDWG
 40
0.8092894676
  9
$TDUSRTIMER
 40
0.8092894676
  9
$USRTIMER
 70
     1
  9
$ANGBASE
 50
0.0
  9
$ANGDIR
 70
     0
  9
$PDMODE
 70
     0
  9
$PDSIZE
 40
0.3125
  9
$PLINEWID
 40
0.0
  9
$COORDS
 70
     1
  9
$SPLFRAME
 70
     0
  9
$SPLINETYPE
 70
     6
  9
$SPLINESEGS
 70
     8
  9
$ATTDIA
 70
     1
  9
$ATTREQ
 70
     1
  9
$HANDLING
 70
     1
  9
$HANDSEED
  5
2EDD9
  9
$SURFTAB1
 70
     6
  9
$SURFTAB2
 70
     6
  9
$SURFTYPE
 70
     6
  9
$SURFU
 70
     6
  9
$SURFV
 70
     6
  9
$UCSNAME
  2

  9
$UCSORG
 10
0.0
 20
0.0
 30
0.0
  9
$UCSXDIR
 10
1.0
 20
0.0
 30
0.0
  9
$UCSYDIR
 10
0.0
 20
1.0
 30
0.0
  9
$PUCSNAME
  2

  9
$PUCSORG
 10
0.0
 20
0.0
 30
0.0
  9
$PUCSXDIR
 10
1.0
 20
0.0
 30
0.0
  9
$PUCSYDIR
 10
0.0
 20
1.0
 30
0.0
  9
$USERI1
 70
     0
  9
$USERI2
 70
     0
  9
$USERI3
 70
     0
  9
$USERI4
 70
     0
  9
$USERI5
 70
     0
  9
$USERR1
 40
0.0
  9
$USERR2
 40
0.0
  9
$USERR3
 40
0.0
  9
$USERR4
 40
0.0
  9
$USERR5
 40
0.0
  9
$WORLDVIEW
 70
     1
  9
$SHADEDGE
 70
     3
  9
$SHADEDIF
 70
    70
  9
$TILEMODE
 70
     1
  9
$MAXACTVP
 70
    64
  9
$PLIMCHECK
 70
     0
  9
$PEXTMIN
 10
1.0000000000000000E+20
 20
1.0000000000000000E+20
 30
1.0000000000000000E+20
  9
$PEXTMAX
 10
-1.0000000000000000E+20
 20
-1.0000000000000000E+20
 30
-1.0000000000000000E+20
  9
$PLIMMIN
 10
0.0
 20
0.0
  9
$PLIMMAX
 10
12.0
 20
9.0
  9
$UNITMODE
 70
     0
  9
$VISRETAIN
 70
     1
  9
$PLINEGEN
 70
     0
  9
$PSLTSCALE
 70
     1
  0
ENDSEC
  0
SECTION
  2
TABLES
  0
TABLE
  2
VPORT
 70
     1
  0
VPORT
  2
*ACTIVE
 70
     0
 10
0.0
 20
0.0
 11
1.0
 21
1.0
 12
2675.1688798723898799
 22
161.3295326342222893
 13
0.0
 23
0.0
 14
1.0
 24
1.0
 15
0.0
 25
0.0
 16
0.0
 26
0.0
 36
60.4960186965801583
 17
3911.3653564453120453
 27
132.5796051025390057
 37
0.0
 40
6.622216605349446
 41
2.204387990762124
 42
50.0
 43
0.0
 44
0.0
 50
0.0
 51
0.0
 71
     0
 72
   100
 73
     1
 74
     1
 75
     0
 76
     0
 77
     0
 78
     0
  0
ENDTAB
  0
TABLE
  2
LTYPE
 70
     2
  0
LTYPE
  2
CONTINUOUS
 70
     0
  3
Solid line
 72
    65
 73
     0
 40
0.0
  0
LTYPE
  2
PHANTOM2
 70
     0
  3
___ _ _ ___ _ _ ___ _ _ ___ _ _
 72
    65
 73
     6
 40
1.25
 49
0.625
 49
-0.125
 49
0.125
 49
-0.125
 49
0.125
 49
-0.125
  0
ENDTAB
  0
TABLE
  2
LAYER
 70
     2
  0
LAYER
  2
0
 70
     0
 62
   255
  6
CONTINUOUS
  0
LAYER
  2
DEFPOINTS
 70
     0
 62
     7
  6
CONTINUOUS
  0
ENDTAB
  0
TABLE
  2
STYLE
 70
     1
  0
STYLE
  2
STANDARD
 70
     0
 40
0.0
 41
0.8
 50
0.0
 71
     0
 42
0.2
  3
txt
  4

  0
ENDTAB
  0
TABLE
  2
VIEW
 70
     0
  0
ENDTAB
  0
TABLE
  2
UCS
 70
     0
  0
ENDTAB
  0
TABLE
  2
APPID
 70
    11
  0
APPID
  2
ACAD
 70
     0
  0
APPID
  2
ACAD_MLEADERVER
 70
     0
  0
APPID
  2
ACAD_EXEMPT_FROM_CAD_STANDARDS
 70
     0
  0
APPID
  2
ACAD_NAV_VCDISPLAY
 70
     0
  0
APPID
  2
ACAECLAYERSTANDARD
 70
     0
  0
APPID
  2
ACCMTRANSPARENCY
 70
     0
  0
APPID
  2
ACAD_DSTYLE_DIMJAG
 70
     0
  0
APPID
  2
ACAD_DSTYLE_DIMTALN
 70
     0
  0
APPID
  2
ACDBATTR
 70
     0
  0
APPID
  2
ACADANNOTATIVE
 70
     0
  0
APPID
  2
DCO15
 70
     0
  0
ENDTAB
  0
TABLE
  2
DIMSTYLE
 70
     1
  0
DIMSTYLE
  2
STANDARD
 70
     0
  3

  4

  5

  6

  7

 40
1.0
 41
0.1875
 42
0.0625
 43
0.38
 44
0.125
 45
0.0
 46
0.0
 47
0.01
 48
0.01
140
0.15625
141
0.09
142
0.0
143
25.3999999999999986
144
1.0
145
0.0
146
1.0
147
0.09
 71
     1
 72
     0
 73
     1
 74
     1
 75
     0
 76
     0
 77
     0
 78
     4
170
     0
171
     2
172
     0
173
     0
174
     0
175
     0
176
     0
177
     0
178
     0
  0
ENDTAB
  0
ENDSEC
  0
SECTION
  2
BLOCKS
  0
BLOCK
  8
0
  2
$MODEL_SPACE
 70
     0
 10
0.0
 20
0.0
 30
0.0
  3
$MODEL_SPACE
  1

  0
ENDBLK
  5
21
  8
0
  0
BLOCK
 67
     1
  8
0
  2
$PAPER_SPACE
 70
     0
 10
0.0
 20
0.0
 30
0.0
  3
$PAPER_SPACE
  1

  0
ENDBLK
  5
1D
 67
     1
  8
0
  0
BLOCK
  8
0
  2
_FILLED
 70
     0
 10
0.0
 20
0.0
 30
0.0
  3
_FILLED
  1

  0
SOLID
  5
2E91C
  8
0
  6
BYBLOCK
 62
     0
 10
0.0
 20
0.0
 30
0.0
 11
-1.0
 21
0.1666666667
 31
0.0
 12
-1.0
 22
-0.1666666667
 32
0.0
 13
-1.0
 23
-0.1666666667
 33
0.0
  0
ENDBLK
  5
2E91D
  8
0
  6
BYBLOCK
 62
     0
  0
ENDSEC
  0
SECTION
  2
ENTITIES
  0
ATTDEF
  5
26A5B
  8
DEFPOINTS
 10
6586.4915361514522374
 20
293.914698178729509
 30
0.0
 40
0.001
  1
P34584-BAF
  3

  2
MODELNUMBER
 70
     0
1001
ACDBATTR
1070
     0
1070
     1
  0
ATTDEF
  5
26A5C
  8
DEFPOINTS
 10
6586.4914103417941078
 20
293.9130313383503221
 30
0.0
 40
0.001
  1
VICE
  3

  2
TRADENAME
 70
     0
1001
ACDBATTR
1070
     0
1070
     1
  0
ATTDEF
  5
26A5D
  8
DEFPOINTS
 10
6586.4915361514522374
 20
293.9113648453961218
 30
0.0
 40
0.001
  1
BATHROOM SINK FAUCET
  3

  2
PRODUCT
 70
     0
1001
ACDBATTR
1070
     0
1070
     1
  0
ARC
  5
2EC02
  8
0
 10
6593.6001115546823712
 20
294.2763249037301989
 30
0.0
 40
0.0435671515140154
 50
355.6402250239116825
 51
49.4017795501645409
  0
LINE
  5
2EC03
  8
0
 10
6593.6284629061829037
 20
294.309405072397908
 30
0.0
 11
6593.5405224625819756
 21
294.3973455159979267
 31
0.0
  0
ARC
  5
2EC04
  8
0
 10
6593.5079561215879949
 20
294.3694383591742962
 30
0.0
 40
0.042917947679332
 50
40.1019555657419602
 51
80.1756411981369581
  0
LINE
  5
2EC05
  8
0
 10
6593.5041354711820532
 20
294.4124255758978848
 30
0.0
 11
6591.908899092428328
 21
294.4124255758824802
 31
0.0
  0
ARC
  5
2EC06
  8
0
 10
6593.5052094414131716
 20
294.3403331150324789
 30
0.0
 40
0.0721004599547042
 50
81.9717059403470643
 51
90.8534791212743755
  0
ARC
  5
2EC07
  8
0
 10
6591.9086514290793275
 20
293.899809337234899
 30
0.0
 40
0.5126162984750512
 50
89.9723183496110437
 51
97.9583630872596984
  0
ARC
  5
2EC08
  8
0
 10
6590.9469261975773406
 20
300.7791099527963752
 30
0.0
 40
6.4335835532547518
 50
277.3252860649664058
 51
277.9583630872597269
  0
ARC
  5
2EC09
  8
0
 10
6591.712015229487406
 20
294.8274971690984785
 30
0.0
 40
0.4329955859114118
 50
270.2524206206845179
 51
277.3252860649664058
  0
LINE
  5
2EC0A
  8
0
 10
6591.7139228160831408
 20
294.3945057851977936
 30
0.0
 11
6590.4320010227829698
 21
294.3939789428978884
 31
0.0
  0
ARC
  5
2EC0B
  8
0
 10
6590.403997239895034
 20
296.5905051751382189
 30
0.0
 40
2.1967047368219159
 50
269.6411591767651998
 51
270.7304313615704814
  0
ARC
  5
2EC0C
  8
0
 10
6590.3934206780695604
 20
294.9017774948616761
 30
0.0
 40
0.5079439361778874
 50
267.2465335193205078
 51
269.6411591767651998
  0
ARC
  5
2EC0D
  8
0
 10
6590.3669900978065925
 20
294.352217609276579
 30
0.0
 40
0.0422511595994122
 50
87.2465335193204936
 51
106.5148197097302045
  0
ARC
  5
2EC0E
  8
0
 10
6590.5023793904820195
 20
293.8955847664199723
 30
0.0
 40
0.5185323934794465
 50
106.5148197097302045
 51
126.6841010163534946
  0
ARC
  5
2EC0F
  8
0
 10
6590.4840633085195805
 20
293.9201719113709146
 30
0.0
 40
0.4878728671415276
 50
126.6841010163534946
 51
157.1370897469022054
  0
ARC
  5
2EC10
  8
0
 10
6590.5174492135665787
 20
293.9060946142944886
 30
0.0
 40
0.5241052966591832
 50
157.1370897469022054
 51
172.7110923493783901
  0
ARC
  5
2EC11
  8
0
 10
6590.4782278064421916
 20
293.9111112748225878
 30
0.0
 40
0.484564360153872
 50
172.7110923493783901
 51
196.8482147585569919
  0
ARC
  5
2EC12
  8
0
 10
6590.5058525633530735
 20
293.9194770525350009
 30
0.0
 40
0.5134280645445646
 50
196.8482147585569919
 51
224.4241733659891906
  0
ARC
  5
2EC13
  8
0
 10
6590.4868447030148673
 20
293.9008474639558131
 30
0.0
 40
0.486813025089046
 50
224.4241733659891906
 51
252.5286337340349121
  0
ARC
  5
2EC14
  8
0
 10
6590.5996151783137975
 20
294.2591339637513101
 30
0.0
 40
0.8624277160087377
 50
252.5286337340349121
 51
253.5705626009192883
  0
ARC
  5
2EC15
  8
0
 10
6590.3665888076420742
 20
293.4688775315635212
 30
0.0
 40
0.0385305634203827
 50
253.5705626009192883
 51
274.0348279896438157
  0
ARC
  5
2EC16
  8
0
 10
6590.4333515471280407
 20
287.9182483249812776
 30
0.0
 40
5.5125662694705646
 50
89.255987756708123
 51
90.6657462005029657
  0
LINE
  5
2EC17
  8
0
 10
6590.5049327624819853
 20
293.4303498302979278
 30
0.0
 11
6591.7091107239530174
 21
293.430351467797891
 31
0.0
  0
ARC
  5
2EC18
  8
0
 10
6591.7054689931392204
 20
292.8945620827258267
 30
0.0
 40
0.5358017612505948
 50
83.6838547305181208
 51
89.610569752842693
  0
ARC
  5
2EC19
  8
0
 10
6591.5890328388713897
 20
291.8426143978890082
 30
0.0
 40
1.5941737703541969
 50
81.3411726564756066
 51
83.6838547305181208
  0
ARC
  5
2EC1A
  8
0
 10
6591.9255096714023239
 20
294.0521181043785077
 30
0.0
 40
0.6408034751275477
 50
261.3411726564755782
 51
263.5771143523560909
  0
ARC
  5
2EC1B
  8
0
 10
6591.9029780293367367
 20
293.8519657318892087
 30
0.0
 40
0.439386874254458
 50
263.5771143523560909
 51
268.1960009545642265
  0
ARC
  5
2EC1C
  8
0
 10
6591.913424972231951
 20
294.1836554458935211
 30
0.0
 40
0.77124106662221
 50
268.1960009545642265
 51
270.3087355784020929
  0
LINE
  5
2EC1D
  8
0
 10
6591.9175807478677598
 20
293.4124255758978848
 30
0.0
 11
6593.5041354695831615
 21
293.4124255758978848
 31
0.0
  0
ARC
  5
2EC1E
  8
0
 10
6593.5078476258349838
 20
293.4548918415205776
 30
0.0
 40
0.0426282045128176
 50
265.0042319004671185
 51
319.9444973934708969
  0
LINE
  5
2EC1F
  8
0
 10
6593.5404761663830868
 20
293.4274593395978741
 30
0.0
 11
6593.6304141075343068
 21
293.5175538207977866
 31
0.0
  0
ARC
  5
2EC20
  8
0
 10
6593.6024519036773199
 20
293.5476272899186938
 30
0.0
 40
0.0410645636699973
 50
312.9165698898926848
 51
0.3770470537612756
  0
LINE
  5
2EC21
  8
0
 10
6593.6435155781846333
 20
293.5478975220565871
 30
0.0
 11
6593.6435526388841026
 21
294.2730129715978933
 31
0.0
  0
LINE
  5
2EC22
  8
0
 10
6593.5405115060257231
 20
294.3974043595517855
 30
0.0
 11
6593.5405115060257231
 21
293.4274946792410788
 31
0.0
  0
ARC
  5
2EC23
  8
0
 10
6590.0681533939041401
 20
294.1170005605753204
 30
0.0
 40
0.0202894939363096
 50
88.111150000461322
 51
154.2520200025834072
  0
LINE
  5
2EC24
  8
0
 10
6590.0688221494319805
 20
294.1372790301978739
 30
0.0
 11
6590.0781761040543643
 21
294.1372790301978739
 31
0.0
  0
LINE
  5
2EC25
  8
0
 10
6590.0781761040543643
 20
294.1372790301978739
 30
0.0
 11
6590.8800565759829624
 21
294.1372790301978739
 31
0.0
  0
ARC
  5
2EC26
  8
0
 10
6590.8800565759829624
 20
293.9737096804307726
 30
0.0
 40
0.1635693497670658
 50
71.308239398890251
 51
90.0
  0
ARC
  5
2EC27
  8
0
 10
6590.8816804680482164
 20
293.9785095356251077
 30
0.0
 40
0.1585022366516248
 50
35.6109425719276729
 51
71.308239398890251
  0
ARC
  5
2EC28
  8
0
 10
6590.8998659924900494
 20
293.9915343464140847
 30
0.0
 40
0.1361335309372879
 50
5.9478202377537128
 51
35.6109425719276729
  0
ARC
  5
2EC29
  8
0
 10
6590.1477070392211317
 20
293.9131717535074131
 30
0.0
 40
0.8923635137793635
 50
353.5544370794157771
 51
5.9478202377537128
  0
ARC
  5
2EC2A
  8
0
 10
6590.9160495343967341
 20
293.8263695875969006
 30
0.0
 40
0.119133401912334
 50
320.3878850727606959
 51
353.5544370794157771
  0
ARC
  5
2EC2B
  8
0
 10
6590.8867642613940916
 20
293.8401935025244143
 30
0.0
 40
0.1507217383867621
 50
297.6692555775002234
 51
323.4389310709307779
  0
ARC
  5
2EC2C
  8
0
 10
6590.8798277194873663
 20
293.8517634632195268
 30
0.0
 40
0.164191500916162
 50
270.0798610752665923
 51
297.938160305521194
  0
ARC
  5
2EC2D
  8
0
 10
6590.8283012094771038
 20
387.2560627194081917
 30
0.0
 40
93.5685049112844212
 50
269.9683082052089844
 51
270.0316919054731102
  0
LINE
  5
2EC2E
  8
0
 10
6590.776546023857918
 20
293.6875721216978832
 30
0.0
 11
6590.0679654998830301
 21
293.6875721216978832
 31
0.0
  0
ARC
  5
2EC2F
  8
0
 10
6590.0679654998830301
 20
293.7075721217697151
 30
0.0
 40
0.0200000000717644
 50
205.263259045272207
 51
270.0
  0
ARC
  5
2EC30
  8
0
 10
6590.5020565727700159
 20
293.9124255758870845
 30
0.0
 40
0.4999999971799721
 50
154.7367409565281946
 51
205.2632590407588111
  0
ARC
  5
2EC31
  8
0
 10
6590.0834773111482718
 20
294.1587859534492964
 30
0.0
 40
0.0218012071069001
 50
157.0910322439092113
 51
236.5889134763216077
  0
LINE
  5
2EC32
  8
0
 10
6590.0714726449832597
 20
294.1405875847977995
 30
0.0
 11
6590.0781761040543643
 21
294.1372790301978739
 31
0.0
  0
LINE
  5
2EC33
  8
0
 10
6590.0785843939193001
 20
293.6875721216978832
 30
0.0
 11
6590.0716092186821697
 21
293.6843361382979083
 31
0.0
  0
ARC
  5
2EC34
  8
0
 10
6590.0814734593977846
 20
293.6669363901540919
 30
0.0
 40
0.0200013619620691
 50
119.5497069153474001
 51
198.9077586150694117
  0
ARC
  5
2EC35
  8
0
 10
6590.4939278093333996
 20
293.9105088957771841
 30
0.0
 40
1.1249999999999989
 50
25.4767492702799103
 51
334.7349156948396853
  0
ARC
  5
2EC36
  8
0
 10
6590.4940380455336708
 20
293.91050889582732
 30
0.0
 40
0.714042787045038
 50
42.6428556688562423
 51
317.7435288527436228
  0
CIRCLE
  5
2EC37
  8
0
 10
6586.4939278107340215
 20
293.9105088957771841
 30
0.0
 40
1.259842521097829
  0
ARC
  5
2EC38
  8
0
 10
6586.4939278093352186
 20
293.9105088957771841
 30
0.0
 40
0.8839722537999996
 50
308.4763447548168074
 51
231.5236552451831926
  0
ARC
  5
2EC39
  8
0
 10
6586.4939278093352186
 20
293.9105088957771841
 30
0.0
 40
0.5499999999999972
 50
90.0
 51
160.8652337571679993
  0
ARC
  5
2EC3A
  8
0
 10
6586.5019669915973282
 20
293.9077196151857834
 30
0.0
 40
0.558509320634485
 50
160.8652337571679993
 51
178.5712589541508066
  0
ARC
  5
2EC3B
  8
0
 10
6588.5018813867700374
 20
293.8578389397378032
 30
0.0
 40
2.5590456661701331
 50
178.5712589541508066
 51
181.6155163475588949
  0
LINE
  5
2EC3C
  8
0
 10
6585.9438528980326737
 20
293.7856934453773192
 30
0.0
 11
6585.9438528980326737
 21
292.8836459807773167
 31
0.0
  0
ARC
  5
2EC3D
  8
0
 10
6586.024347338442567
 20
292.8839263011656726
 30
0.0
 40
0.0804949285124464
 50
180.1995306776306904
 51
224.9299342729212867
  0
LINE
  5
2EC3E
  8
0
 10
6585.9673592668441415
 20
292.827077438277172
 30
0.0
 11
6586.0404068594707496
 21
292.7538509702851002
 31
0.0
  0
ARC
  5
2EC3F
  8
0
 10
6586.0966647272962291
 20
292.8099714131199107
 30
0.0
 40
0.0794635249422483
 50
224.9299342729212867
 51
270.2885347807164749
  0
LINE
  5
2EC40
  8
0
 10
6586.0970648945340145
 20
292.7305088957771773
 30
0.0
 11
6586.8907806598681418
 21
292.7305088957771773
 31
0.0
  0
ARC
  5
2EC41
  8
0
 10
6586.4939278093352186
 20
293.9105088957771841
 30
0.0
 40
1.2317853497999629
 50
253.3272612419150107
 51
286.626037104915099
  0
ARC
  5
2EC42
  8
0
 10
6586.4939278093352186
 20
293.9105088957771841
 30
0.0
 40
0.5499999999999972
 50
19.1347662428319794
 51
90.0
  0
ARC
  5
2EC43
  8
0
 10
6586.4858886270721996
 20
293.9077196151857834
 30
0.0
 40
0.558509320634485
 50
1.4287410458492289
 51
19.1347662428319794
  0
ARC
  5
2EC44
  8
0
 10
6584.4859742318967619
 20
293.8578389397378032
 30
0.0
 40
2.5590456661701331
 50
358.3844836524410766
 51
1.4287410458492289
  0
LINE
  5
2EC45
  8
0
 10
6587.0440027206341256
 20
293.7856934453773192
 30
0.0
 11
6587.0440027206341256
 21
292.8836459807773167
 31
0.0
  0
ARC
  5
2EC46
  8
0
 10
6586.9635082802242323
 20
292.8839263011656726
 30
0.0
 40
0.0804949285124464
 50
315.0700657270787133
 51
359.8004693223660979
  0
LINE
  5
2EC47
  8
0
 10
6587.0204963518226577
 20
292.827077438277172
 30
0.0
 11
6586.9474487591987781
 21
292.7538509702851002
 31
0.0
  0
ARC
  5
2EC48
  8
0
 10
6586.8911908913705702
 20
292.8099714131199107
 30
0.0
 40
0.0794635249422483
 50
269.7114652192835251
 51
315.0700657270787133
  0
LINE
  5
2EC49
  8
0
 10
6585.9673592668350466
 20
292.827077438277172
 30
0.0
 11
6587.0204963518326622
 21
292.827077438277172
 31
0.0
  0
ARC
  5
2EC4A
  8
0
 10
6579.3877440639862471
 20
294.2763249037301989
 30
0.0
 40
0.0435671515140154
 50
130.5982204498353951
 51
184.3597749760882891
  0
LINE
  5
2EC4B
  8
0
 10
6579.3593927124838956
 20
294.309405072397908
 30
0.0
 11
6579.4473331560848237
 21
294.3973455159979267
 31
0.0
  0
ARC
  5
2EC4C
  8
0
 10
6579.4798994970788044
 20
294.3694383591742962
 30
0.0
 40
0.042917947679332
 50
99.8243588018630561
 51
139.8980444342579972
  0
LINE
  5
2EC4D
  8
0
 10
6579.4837201474847461
 20
294.4124255758978848
 30
0.0
 11
6581.0789565262411998
 21
294.4124255758824802
 31
0.0
  0
ARC
  5
2EC4E
  8
0
 10
6579.4826461772536277
 20
294.3403331150324789
 30
0.0
 40
0.0721004599547042
 50
89.1465208787256387
 51
98.0282940596529215
  0
ARC
  5
2EC4F
  8
0
 10
6581.0792041895883813
 20
293.899809337234899
 30
0.0
 40
0.5126162984750512
 50
82.0416369127403158
 51
90.0276816503889563
  0
ARC
  5
2EC50
  8
0
 10
6582.0409294210903681
 20
300.7791099527963752
 30
0.0
 40
6.4335835532547518
 50
262.0416369127402731
 51
262.6747139350335942
  0
ARC
  5
2EC51
  8
0
 10
6581.2758403891812122
 20
294.8274971690984785
 30
0.0
 40
0.4329955859114118
 50
262.6747139350335942
 51
269.7475793793154821
  0
LINE
  5
2EC52
  8
0
 10
6581.2739328025836585
 20
294.3945057851977936
 30
0.0
 11
6582.5558545958838295
 21
294.3939789428978884
 31
0.0
  0
ARC
  5
2EC53
  8
0
 10
6582.5838583787726748
 20
296.5905051751382189
 30
0.0
 40
2.1967047368219159
 50
269.2695686384295186
 51
270.3588408232349138
  0
ARC
  5
2EC54
  8
0
 10
6582.5944349405990579
 20
294.9017774948616761
 30
0.0
 40
0.5079439361778874
 50
270.3588408232349138
 51
272.7534664806794922
  0
ARC
  5
2EC55
  8
0
 10
6582.6208655208620257
 20
294.352217609276579
 30
0.0
 40
0.0422511595994122
 50
73.4851802902697671
 51
92.7534664806795206
  0
ARC
  5
2EC56
  8
0
 10
6582.4854762281865987
 20
293.8955847664199723
 30
0.0
 40
0.5185323934794465
 50
53.3158989836465125
 51
73.4851802902697671
  0
ARC
  5
2EC57
  8
0
 10
6582.5037923101481283
 20
293.9201719113709146
 30
0.0
 40
0.4878728671415276
 50
22.8629102530977484
 51
53.3158989836465125
  0
ARC
  5
2EC58
  8
0
 10
6582.4704064051020396
 20
293.9060946142944886
 30
0.0
 40
0.5241052966591832
 50
7.2889076506215629
 51
22.8629102530977484
  0
ARC
  5
2EC59
  8
0
 10
6582.5096278122264266
 20
293.9111112748225878
 30
0.0
 40
0.484564360153872
 50
343.1517852414430081
 51
7.2889076506215629
  0
ARC
  5
2EC5A
  8
0
 10
6582.4820030553137258
 20
293.9194770525350009
 30
0.0
 40
0.5134280645445646
 50
315.5758266340108094
 51
343.1517852414430081
  0
ARC
  5
2EC5B
  8
0
 10
6582.501010915651932
 20
293.9008474639558131
 30
0.0
 40
0.486813025089046
 50
287.4713662659651163
 51
315.5758266340108094
  0
ARC
  5
2EC5C
  8
0
 10
6582.3882404403530018
 20
294.2591339637513101
 30
0.0
 40
0.8624277160087377
 50
286.4294373990807117
 51
287.4713662659651163
  0
ARC
  5
2EC5D
  8
0
 10
6582.6212668110274535
 20
293.4688775315635212
 30
0.0
 40
0.0385305634203827
 50
265.9651720103561843
 51
286.4294373990807117
  0
ARC
  5
2EC5E
  8
0
 10
6582.5545040715405776
 20
287.9182483249812776
 30
0.0
 40
5.5125662694705646
 50
89.3342537994970485
 51
90.7440122432918344
  0
LINE
  5
2EC5F
  8
0
 10
6582.482922856184814
 20
293.4303498302979278
 30
0.0
 11
6581.2787448947156008
 21
293.430351467797891
 31
0.0
  0
ARC
  5
2EC60
  8
0
 10
6581.2823866255303074
 20
292.8945620827258267
 30
0.0
 40
0.5358017612505948
 50
90.3894302471573354
 51
96.3161452694818649
  0
ARC
  5
2EC61
  8
0
 10
6581.3988227797963191
 20
291.8426143978890082
 30
0.0
 40
1.5941737703541969
 50
96.3161452694818649
 51
98.6588273435243934
  0
ARC
  5
2EC62
  8
0
 10
6581.0623459472653849
 20
294.0521181043785077
 30
0.0
 40
0.6408034751275477
 50
276.4228856476439091
 51
278.6588273435244218
  0
ARC
  5
2EC63
  8
0
 10
6581.0848775893300626
 20
293.8519657318892087
 30
0.0
 40
0.439386874254458
 50
271.8039990454357735
 51
276.4228856476439091
  0
ARC
  5
2EC64
  8
0
 10
6581.0744306464348483
 20
294.1836554458935211
 30
0.0
 40
0.77124106662221
 50
269.6912644215979071
 51
271.8039990454357735
  0
LINE
  5
2EC65
  8
0
 10
6581.070274870799949
 20
293.4124255758978848
 30
0.0
 11
6579.4837201490845473
 21
293.4124255758978848
 31
0.0
  0
ARC
  5
2EC66
  8
0
 10
6579.4800079928318155
 20
293.4548918415205776
 30
0.0
 40
0.0426282045128176
 50
220.0555026065291031
 51
274.9957680995328815
  0
LINE
  5
2EC67
  8
0
 10
6579.4473794522837125
 20
293.4274593395978741
 30
0.0
 11
6579.3574415111352209
 21
293.5175538207977866
 31
0.0
  0
ARC
  5
2EC68
  8
0
 10
6579.3854037149903888
 20
293.5476272899186938
 30
0.0
 40
0.0410645636699973
 50
179.6229529462353867
 51
227.0834301101072867
  0
LINE
  5
2EC69
  8
0
 10
6579.3443400404821659
 20
293.5478975220565871
 30
0.0
 11
6579.3443029797836061
 21
294.2730129715978933
 31
0.0
  0
LINE
  5
2EC6A
  8
0
 10
6579.4473441126410762
 20
294.3974043595517855
 30
0.0
 11
6579.4473441126410762
 21
293.4274946792410788
 31
0.0
  0
ARC
  5
2EC6B
  8
0
 10
6582.9197022247635687
 20
294.1170005605753204
 30
0.0
 40
0.0202894939363096
 50
25.7479799974165395
 51
91.888849999590775
  0
LINE
  5
2EC6C
  8
0
 10
6582.9190334692348188
 20
294.1372790301978739
 30
0.0
 11
6582.9096795146133445
 21
294.1372790301978739
 31
0.0
  0
LINE
  5
2EC6D
  8
0
 10
6582.9096795146133445
 20
294.1372790301978739
 30
0.0
 11
6582.1077990426847464
 21
294.1372790301978739
 31
0.0
  0
ARC
  5
2EC6E
  8
0
 10
6582.1077990426847464
 20
293.9737096804307726
 30
0.0
 40
0.1635693497670658
 50
90.0
 51
108.6917606011097064
  0
ARC
  5
2EC6F
  8
0
 10
6582.1061751506185828
 20
293.9785095356251077
 30
0.0
 40
0.1585022366516248
 50
108.6917606011097064
 51
144.3890574280723058
  0
ARC
  5
2EC70
  8
0
 10
6582.0879896261767499
 20
293.9915343464140847
 30
0.0
 40
0.1361335309372879
 50
144.3890574280723058
 51
174.0521797622463112
  0
ARC
  5
2EC71
  8
0
 10
6582.8401485794456676
 20
293.9131717535074131
 30
0.0
 40
0.8923635137793635
 50
174.0521797622463112
 51
186.4455629205841944
  0
ARC
  5
2EC72
  8
0
 10
6582.0718060842718842
 20
293.8263695875969006
 30
0.0
 40
0.119133401912334
 50
186.4455629205841944
 51
219.6121149272391904
  0
ARC
  5
2EC73
  8
0
 10
6582.1010913572727077
 20
293.8401935025244143
 30
0.0
 40
0.1507217383867621
 50
216.5610689290691937
 51
242.3307444224998051
  0
ARC
  5
2EC74
  8
0
 10
6582.1080278991803425
 20
293.8517634632195268
 30
0.0
 40
0.164191500916162
 50
242.0618396944786923
 51
269.9201389247335214
  0
ARC
  5
2EC75
  8
0
 10
6582.1595544091906049
 20
387.2560627194081917
 30
0.0
 40
93.5685049112844212
 50
269.9683080945268898
 51
270.0316917947910156
  0
LINE
  5
2EC76
  8
0
 10
6582.2113095948097907
 20
293.6875721216978832
 30
0.0
 11
6582.9198901187846786
 21
293.6875721216978832
 31
0.0
  0
ARC
  5
2EC77
  8
0
 10
6582.9198901187846786
 20
293.7075721217697151
 30
0.0
 40
0.0200000000717644
 50
270.0
 51
334.736740954727793
  0
ARC
  5
2EC78
  8
0
 10
6582.4857990458976928
 20
293.9124255758870845
 30
0.0
 40
0.4999999971799721
 50
334.7367409592412173
 51
25.2632590434718196
  0
ARC
  5
2EC79
  8
0
 10
6582.9043783075194369
 20
294.1587859534492964
 30
0.0
 40
0.0218012071069001
 50
303.4110865236784207
 51
22.9089677560907496
  0
LINE
  5
2EC7A
  8
0
 10
6582.9163829736844491
 20
294.1405875847977995
 30
0.0
 11
6582.9096795146133445
 21
294.1372790301978739
 31
0.0
  0
LINE
  5
2EC7B
  8
0
 10
6582.9092712247502277
 20
293.6875721216978832
 30
0.0
 11
6582.9162463999846295
 21
293.6843361382979083
 31
0.0
  0
ARC
  5
2EC7C
  8
0
 10
6582.9063821592690147
 20
293.6669363901540919
 30
0.0
 40
0.0200013619620691
 50
341.0922413849306167
 51
60.4502930846525786
  0
ARC
  5
2EC7D
  8
0
 10
6582.4939278093343091
 20
293.9105088957771841
 30
0.0
 40
1.1249999999999989
 50
205.2650843051602862
 51
154.5232507297201039
  0
ARC
  5
2EC7E
  8
0
 10
6582.493817573134038
 20
293.91050889582732
 30
0.0
 40
0.714042787045038
 50
222.2564711472564056
 51
137.3571443311437008
  0
CIRCLE
  5
2EC7F
  8
0
 10
6582.218480889334387
 20
293.9105088959772729
 30
0.0
 40
0.0984251968999992
  0
CIRCLE
  5
2EC80
  8
0
 10
6582.218480889334387
 20
293.9105088959772729
 30
0.0
 40
0.0468244707000007
  0
LINE
  5
2EC81
  8
0
 10
6582.218480889334387
 20
293.9573333665773021
 30
0.0
 11
6582.1779297082757694
 21
293.9339211312772022
 31
0.0
  0
LINE
  5
2EC82
  8
0
 10
6582.1779297082757694
 20
293.9339211312772022
 30
0.0
 11
6582.1779297082757694
 21
293.8870966606771731
 31
0.0
  0
LINE
  5
2EC83
  8
0
 10
6582.1779297082757694
 20
293.8870966606771731
 30
0.0
 11
6582.218480889334387
 21
293.8636844253773006
 31
0.0
  0
LINE
  5
2EC84
  8
0
 10
6582.218480889334387
 20
293.8636844253773006
 30
0.0
 11
6582.2590320703930047
 21
293.8870966606771731
 31
0.0
  0
LINE
  5
2EC85
  8
0
 10
6582.2590320703930047
 20
293.8870966606771731
 30
0.0
 11
6582.2590320703930047
 21
293.9339211312772022
 31
0.0
  0
LINE
  5
2EC86
  8
0
 10
6582.2590320703930047
 20
293.9339211312772022
 30
0.0
 11
6582.218480889334387
 21
293.9573333665773021
 31
0.0
  0
CIRCLE
  5
2EC87
  8
0
 10
6582.218480889334387
 20
293.9105088959772729
 30
0.0
 40
0.1119998432000013
  0
CIRCLE
  5
2EC88
  8
0
 10
6590.7693747293333217
 20
293.9105088957771841
 30
0.0
 40
0.0984251968999992
  0
CIRCLE
  5
2EC89
  8
0
 10
6590.7693747293333217
 20
293.9105088957771841
 30
0.0
 40
0.0468244707000007
  0
LINE
  5
2EC8A
  8
0
 10
6590.7693747293333217
 20
293.9573333663773269
 30
0.0
 11
6590.7288235482747041
 21
293.9339211310772271
 31
0.0
  0
LINE
  5
2EC8B
  8
0
 10
6590.7288235482747041
 20
293.9339211310772271
 30
0.0
 11
6590.7288235482747041
 21
293.8870966604773116
 31
0.0
  0
LINE
  5
2EC8C
  8
0
 10
6590.7288235482747041
 20
293.8870966604773116
 30
0.0
 11
6590.7693747293333217
 21
293.8636844251773255
 31
0.0
  0
LINE
  5
2EC8D
  8
0
 10
6590.7693747293333217
 20
293.8636844251773255
 30
0.0
 11
6590.8099259103919394
 21
293.8870966604773116
 31
0.0
  0
LINE
  5
2EC8E
  8
0
 10
6590.8099259103919394
 20
293.8870966604773116
 30
0.0
 11
6590.8099259103919394
 21
293.9339211310772271
 31
0.0
  0
LINE
  5
2EC8F
  8
0
 10
6590.8099259103919394
 20
293.9339211310772271
 30
0.0
 11
6590.7693747293333217
 21
293.9573333663773269
 31
0.0
  0
CIRCLE
  5
2EC90
  8
0
 10
6590.7693747293333217
 20
293.9105088957771841
 30
0.0
 40
0.1119998432000013
  0
ENDSEC
  0
EOF
