  0
SECTION
  2
HEADER
  9
$ACADVER
  1
AC1009
  9
$INSBASE
 10
6611.9906968404538929
 20
294.5241314332535012
 30
0.0
  9
$EXTMIN
 10
6602.2321501851183712
 20
293.2547051828693725
 30
-0.0000000000112498
  9
$EXTMAX
 10
6612.3214363761480854
 20
295.8048242425657008
 30
0.0000000000002956
  9
$LIMMIN
 10
0.0
 20
0.0
  9
$LIMMAX
 10
11.6929133858000007
 20
8.2677165353999982
  9
$ORTHOMODE
 70
     0
  9
$REGENMODE
 70
     1
  9
$FILLMODE
 70
     1
  9
$QTEXTMODE
 70
     0
  9
$MIRRTEXT
 70
     0
  9
$DRAGMODE
 70
     2
  9
$LTSCALE
 40
0.6431102362
  9
$OSMODE
 70
  4095
  9
$ATTMODE
 70
     1
  9
$TEXTSIZE
 40
0.2
  9
$TRACEWID
 40
0.05
  9
$TEXTSTYLE
  7
STANDARD
  9
$CLAYER
  8
0
  9
$CELTYPE
  6
BYLAYER
  9
$CECOLOR
 62
   256
  9
$DIMSCALE
 40
1.0
  9
$DIMASZ
 40
0.1875
  9
$DIMEXO
 40
0.0625
  9
$DIMDLI
 40
0.4443307087
  9
$DIMRND
 40
0.0
  9
$DIMDLE
 40
0.0
  9
$DIMEXE
 40
0.125
  9
$DIMTP
 40
0.01
  9
$DIMTM
 40
0.01
  9
$DIMTXT
 40
2.0
  9
$DIMCEN
 40
0.1052362205
  9
$DIMTSZ
 40
0.0
  9
$DIMTOL
 70
     1
  9
$DIMLIM
 70
     0
  9
$DIMTIH
 70
     1
  9
$DIMTOH
 70
     1
  9
$DIMSE1
 70
     0
  9
$DIMSE2
 70
     0
  9
$DIMTAD
 70
     0
  9
$DIMZIN
 70
     0
  9
$DIMBLK
  1

  9
$DIMASO
 70
     1
  9
$DIMSHO
 70
     1
  9
$DIMPOST
  1
\X
  9
$DIMAPOST
  1

  9
$DIMALT
 70
     1
  9
$DIMALTD
 70
     2
  9
$DIMALTF
 40
25.3999999999999986
  9
$DIMLFAC
 40
1.0
  9
$DIMTOFL
 70
     0
  9
$DIMTVP
 40
0.0
  9
$DIMTIX
 70
     0
  9
$DIMSOXD
 70
     0
  9
$DIMSAH
 70
     0
  9
$DIMBLK1
  1

  9
$DIMBLK2
  1

  9
$DIMSTYLE
  2
STANDARD
  9
$DIMCLRD
 70
     0
  9
$DIMCLRE
 70
     0
  9
$DIMCLRT
 70
     0
  9
$DIMTFAC
 40
1.0
  9
$DIMGAP
 40
0.09
  9
$LUNITS
 70
     2
  9
$LUPREC
 70
     4
  9
$SKETCHINC
 40
0.1
  9
$FILLETRAD
 40
0.0
  9
$AUNITS
 70
     0
  9
$AUPREC
 70
     0
  9
$MENU
  1
.
  9
$ELEVATION
 40
0.0
  9
$PELEVATION
 40
0.0
  9
$THICKNESS
 40
0.0
  9
$LIMCHECK
 70
     0
  9
$BLIPMODE
 70
     0
  9
$CHAMFERA
 40
0.0
  9
$CHAMFERB
 40
0.0
  9
$SKPOLY
 70
     0
  9
$TDCREATE
 40
2458060.468368056230247
  9
$TDUPDATE
 40
2460696.9465509261935949
  9
$TDINDWG
 40
0.8098681713
  9
$TDUSRTIMER
 40
0.8098681713
  9
$USRTIMER
 70
     1
  9
$ANGBASE
 50
0.0
  9
$ANGDIR
 70
     0
  9
$PDMODE
 70
     0
  9
$PDSIZE
 40
0.3125
  9
$PLINEWID
 40
0.0
  9
$COORDS
 70
     1
  9
$SPLFRAME
 70
     0
  9
$SPLINETYPE
 70
     6
  9
$SPLINESEGS
 70
     8
  9
$ATTDIA
 70
     1
  9
$ATTREQ
 70
     1
  9
$HANDLING
 70
     1
  9
$HANDSEED
  5
2EF3E
  9
$SURFTAB1
 70
     6
  9
$SURFTAB2
 70
     6
  9
$SURFTYPE
 70
     6
  9
$SURFU
 70
     6
  9
$SURFV
 70
     6
  9
$UCSNAME
  2

  9
$UCSORG
 10
0.0
 20
0.0
 30
0.0
  9
$UCSXDIR
 10
1.0
 20
0.0
 30
0.0
  9
$UCSYDIR
 10
0.0
 20
1.0
 30
0.0
  9
$PUCSNAME
  2

  9
$PUCSORG
 10
0.0
 20
0.0
 30
0.0
  9
$PUCSXDIR
 10
1.0
 20
0.0
 30
0.0
  9
$PUCSYDIR
 10
0.0
 20
1.0
 30
0.0
  9
$USERI1
 70
     0
  9
$USERI2
 70
     0
  9
$USERI3
 70
     0
  9
$USERI4
 70
     0
  9
$USERI5
 70
     0
  9
$USERR1
 40
0.0
  9
$USERR2
 40
0.0
  9
$USERR3
 40
0.0
  9
$USERR4
 40
0.0
  9
$USERR5
 40
0.0
  9
$WORLDVIEW
 70
     1
  9
$SHADEDGE
 70
     3
  9
$SHADEDIF
 70
    70
  9
$TILEMODE
 70
     1
  9
$MAXACTVP
 70
    64
  9
$PLIMCHECK
 70
     0
  9
$PEXTMIN
 10
1.0000000000000000E+20
 20
1.0000000000000000E+20
 30
1.0000000000000000E+20
  9
$PEXTMAX
 10
-1.0000000000000000E+20
 20
-1.0000000000000000E+20
 30
-1.0000000000000000E+20
  9
$PLIMMIN
 10
0.0
 20
0.0
  9
$PLIMMAX
 10
12.0
 20
9.0
  9
$UNITMODE
 70
     0
  9
$VISRETAIN
 70
     1
  9
$PLINEGEN
 70
     0
  9
$PSLTSCALE
 70
     1
  0
ENDSEC
  0
SECTION
  2
TABLES
  0
TABLE
  2
VPORT
 70
     1
  0
VPORT
  2
*ACTIVE
 70
     0
 10
0.0
 20
0.0
 11
1.0
 21
1.0
 12
2695.9114368353198188
 22
161.9501596101785026
 13
0.0
 23
0.0
 14
1.0
 24
1.0
 15
0.0
 25
0.0
 16
0.0
 26
0.0
 36
60.4960186965801583
 17
3911.3653564453120453
 27
132.5796051025390057
 37
0.0
 40
4.7185982327462668
 41
2.1449438202247189
 42
50.0
 43
0.0
 44
0.0
 50
0.0
 51
0.0
 71
     0
 72
   100
 73
     1
 74
     1
 75
     0
 76
     0
 77
     0
 78
     0
  0
ENDTAB
  0
TABLE
  2
LTYPE
 70
     2
  0
LTYPE
  2
CONTINUOUS
 70
     0
  3
Solid line
 72
    65
 73
     0
 40
0.0
  0
LTYPE
  2
PHANTOM2
 70
     0
  3
___ _ _ ___ _ _ ___ _ _ ___ _ _
 72
    65
 73
     6
 40
1.25
 49
0.625
 49
-0.125
 49
0.125
 49
-0.125
 49
0.125
 49
-0.125
  0
ENDTAB
  0
TABLE
  2
LAYER
 70
     2
  0
LAYER
  2
0
 70
     0
 62
   255
  6
CONTINUOUS
  0
LAYER
  2
DEFPOINTS
 70
     0
 62
     7
  6
CONTINUOUS
  0
ENDTAB
  0
TABLE
  2
STYLE
 70
     1
  0
STYLE
  2
STANDARD
 70
     0
 40
0.0
 41
0.8
 50
0.0
 71
     0
 42
0.2
  3
txt
  4

  0
ENDTAB
  0
TABLE
  2
VIEW
 70
     0
  0
ENDTAB
  0
TABLE
  2
UCS
 70
     0
  0
ENDTAB
  0
TABLE
  2
APPID
 70
    11
  0
APPID
  2
ACAD
 70
     0
  0
APPID
  2
ACAD_MLEADERVER
 70
     0
  0
APPID
  2
ACAD_EXEMPT_FROM_CAD_STANDARDS
 70
     0
  0
APPID
  2
ACAD_NAV_VCDISPLAY
 70
     0
  0
APPID
  2
ACAECLAYERSTANDARD
 70
     0
  0
APPID
  2
ACCMTRANSPARENCY
 70
     0
  0
APPID
  2
ACAD_DSTYLE_DIMJAG
 70
     0
  0
APPID
  2
ACAD_DSTYLE_DIMTALN
 70
     0
  0
APPID
  2
ACDBATTR
 70
     0
  0
APPID
  2
ACADANNOTATIVE
 70
     0
  0
APPID
  2
DCO15
 70
     0
  0
ENDTAB
  0
TABLE
  2
DIMSTYLE
 70
     1
  0
DIMSTYLE
  2
STANDARD
 70
     0
  3

  4

  5

  6

  7

 40
1.0
 41
0.1875
 42
0.0625
 43
0.38
 44
0.125
 45
0.0
 46
0.0
 47
0.01
 48
0.01
140
0.15625
141
0.09
142
0.0
143
25.3999999999999986
144
1.0
145
0.0
146
1.0
147
0.09
 71
     1
 72
     0
 73
     1
 74
     1
 75
     0
 76
     0
 77
     0
 78
     4
170
     0
171
     2
172
     0
173
     0
174
     0
175
     0
176
     0
177
     0
178
     0
  0
ENDTAB
  0
ENDSEC
  0
SECTION
  2
BLOCKS
  0
BLOCK
  8
0
  2
$MODEL_SPACE
 70
     0
 10
0.0
 20
0.0
 30
0.0
  3
$MODEL_SPACE
  1

  0
ENDBLK
  5
21
  8
0
  0
BLOCK
 67
     1
  8
0
  2
$PAPER_SPACE
 70
     0
 10
0.0
 20
0.0
 30
0.0
  3
$PAPER_SPACE
  1

  0
ENDBLK
  5
1D
 67
     1
  8
0
  0
BLOCK
  8
0
  2
_FILLED
 70
     0
 10
0.0
 20
0.0
 30
0.0
  3
_FILLED
  1

  0
SOLID
  5
2E91C
  8
0
  6
BYBLOCK
 62
     0
 10
0.0
 20
0.0
 30
0.0
 11
-1.0
 21
0.1666666667
 31
0.0
 12
-1.0
 22
-0.1666666667
 32
0.0
 13
-1.0
 23
-0.1666666667
 33
0.0
  0
ENDBLK
  5
2E91D
  8
0
  6
BYBLOCK
 62
     0
  0
ENDSEC
  0
SECTION
  2
ENTITIES
  0
ATTDEF
  5
26A5B
  8
DEFPOINTS
 10
6611.9912935453121463
 20
294.5239012298815169
 30
0.0
 40
0.001
  1
P34584-BN
  3

  2
MODELNUMBER
 70
     0
1001
ACDBATTR
1070
     0
1070
     1
  0
ATTDEF
  5
26A5C
  8
DEFPOINTS
 10
6611.9911677356540167
 20
294.5222343895022732
 30
0.0
 40
0.001
  1
VICE
  3

  2
TRADENAME
 70
     0
1001
ACDBATTR
1070
     0
1070
     1
  0
ATTDEF
  5
26A5D
  8
DEFPOINTS
 10
6611.9912935453121463
 20
294.5205678965480729
 30
0.0
 40
0.001
  1
BATHROOM SINK FAUCET
  3

  2
PRODUCT
 70
     0
1001
ACDBATTR
1070
     0
1070
     1
  0
CIRCLE
  5
2EDA9
  8
0
 10
6609.925893690853627
 20
294.5241314332535012
 30
0.0
 40
0.3969759595999988
  0
LINE
  5
2EDAA
  8
0
 10
6610.058575846020176
 20
294.0420573251535075
 30
0.0
 11
6611.5006968404550207
 21
294.0420573251535075
 31
0.0
  0
LINE
  5
2EDAB
  8
0
 10
6611.5006968404550207
 20
293.8383735152535223
 30
0.0
 11
6611.5006968405723455
 21
295.209889352384721
 31
0.0
  0
LINE
  5
2EDAC
  8
0
 10
6611.4906968405539374
 20
295.0062055413534949
 30
0.0
 11
6610.058575846020176
 21
295.0062055413537223
 31
0.0
  0
LINE
  5
2EDAD
  8
0
 10
6610.3394449324541711
 20
294.2433774360534926
 30
0.0
 11
6611.4908202485539732
 21
294.2575883940535277
 31
0.0
  0
ARC
  5
2EDAE
  8
0
 10
6611.4906968319091902
 20
294.2675876410089018
 30
0.0
 40
0.0100000085671608
 50
270.7071426339124969
 51
359.9956394256673207
  0
LINE
  5
2EDAF
  8
0
 10
6610.395237039650965
 20
294.3517457582668158
 30
0.0
 11
6611.4906968436698662
 21
294.351574604853397
 31
0.0
  0
ARC
  5
2EDB0
  8
0
 10
6611.490282774768275
 20
294.3627672572185929
 30
0.0
 40
0.0112003089253005
 50
272.1186744153043833
 51
338.4039164755378124
  0
LINE
  5
2EDB1
  8
0
 10
6610.058575846020176
 20
295.0062055401133989
 30
0.0
 11
6611.5006968404550207
 21
295.0062055401133989
 31
0.0
  0
LINE
  5
2EDB2
  8
0
 10
6610.3394449324541711
 20
294.8048854292134138
 30
0.0
 11
6611.4908202485539732
 21
294.7906744712133786
 31
0.0
  0
ARC
  5
2EDB3
  8
0
 10
6611.4906968319091902
 20
294.7806752242580046
 30
0.0
 40
0.0100000085671608
 50
0.0043605743327309
 51
89.2928573660875173
  0
LINE
  5
2EDB4
  8
0
 10
6610.395237039650965
 20
294.6965171070000906
 30
0.0
 11
6611.5006968405277803
 21
294.6966898228017158
 31
0.0
  0
LINE
  5
2EDB5
  8
0
 10
6611.5006968404550207
 20
293.8383735154534975
 30
0.0
 11
6611.5036473788532021
 21
293.8101983351534727
 31
0.0
  0
LINE
  5
2EDB6
  8
0
 10
6611.5036473788532021
 20
293.8101983351534727
 30
0.0
 11
6611.5839811077530612
 21
293.4308446156624086
 31
0.0
  0
ARC
  5
2EDB7
  8
0
 10
6611.6231133024466544
 20
293.4391314333690843
 30
0.0
 40
0.0400000001156455
 50
191.9565842527688062
 51
269.9999998657640958
  0
LINE
  5
2EDB8
  8
0
 10
6611.623113302353886
 20
293.3991314332535012
 30
0.0
 11
6611.9806968404527652
 21
293.399131432415686
 31
0.0
  0
ARC
  5
2EDB9
  8
0
 10
6611.9806968404773215
 20
293.4091314323922006
 30
0.0
 40
0.0099999999765714
 50
269.9999998657640958
 51
0.0000049346087061
  0
LINE
  5
2EDBA
  8
0
 10
6611.6187960314664451
 20
293.3993651011106749
 30
0.0
 11
6611.6509017367507113
 21
293.2923460834658727
 31
0.0
  0
ARC
  5
2EDBB
  8
0
 10
6611.6886114362196167
 20
293.303658994612988
 30
0.0
 40
0.0393700824574095
 50
196.6992460549298869
 51
269.999995392832318
  0
LINE
  5
2EDBC
  8
0
 10
6611.6886114330536657
 20
293.2642889121556777
 30
0.0
 11
6611.9906968404538929
 21
293.2642889121556777
 31
0.0
  0
LINE
  5
2EDBD
  8
0
 10
6611.9906968404538929
 20
293.2642889121556777
 30
0.0
 11
6611.9906968404538929
 21
295.7839739543513247
 31
0.0
  0
LINE
  5
2EDBE
  8
0
 10
6611.9906968404538929
 20
295.7839739543513247
 30
0.0
 11
6611.6886114330536657
 21
295.7839739543513247
 31
0.0
  0
ARC
  5
2EDBF
  8
0
 10
6611.6886114361041109
 20
295.7446038720501065
 30
0.0
 40
0.0393700823012454
 50
90.0000044380700785
 51
163.3007540953198884
  0
LINE
  5
2EDC0
  8
0
 10
6611.6509017367552588
 20
295.7559167830535216
 30
0.0
 11
6611.6187879894068828
 21
295.6488709583376249
 31
0.0
  0
ARC
  5
2EDC1
  8
0
 10
6611.9806968404527652
 20
295.6391314332535103
 30
0.0
 40
0.0100000000000122
 50
0.0000000000683946
 51
89.9999999999478888
  0
LINE
  5
2EDC2
  8
0
 10
6611.9806968404527652
 20
295.6491314332535012
 30
0.0
 11
6611.623113302353886
 21
295.6491314332537854
 31
0.0
  0
ARC
  5
2EDC3
  8
0
 10
6611.623113302353886
 20
295.6091314332538218
 30
0.0
 40
0.0399999999998997
 50
89.9999999999478888
 51
168.0434157572917968
  0
LINE
  5
2EDC4
  8
0
 10
6611.5839811077721606
 20
295.6174182509296884
 30
0.0
 11
6611.5036473789214142
 21
295.2380645313393188
 31
0.0
  0
LINE
  5
2EDC5
  8
0
 10
6611.5036473789214142
 20
295.2380645313393188
 30
0.0
 11
6611.5006968404550207
 21
295.2098893511534925
 31
0.0
  0
LINE
  5
2EDC6
  8
0
 10
6611.5006968404550207
 20
295.0646947111534928
 30
0.0
 11
6610.547005493512188
 21
295.0646939192358218
 31
0.0
  0
LINE
  5
2EDC7
  8
0
 10
6610.2992564331079848
 20
295.0646937135120993
 30
0.0
 11
6610.0588976124790861
 21
295.0646935139250786
 31
0.0
  0
ARC
  5
2EDC8
  8
0
 10
6610.0923372552097135
 20
295.0822049476302027
 30
0.0
 40
0.0724493666498122
 50
221.1437915614637006
 51
235.1132923989918879
  0
ARC
  5
2EDC9
  8
0
 10
6610.1472312816276826
 20
295.1603828732361876
 30
0.0
 40
0.1679747535799225
 50
235.0060435291835006
 51
246.6152279264422873
  0
ARC
  5
2EDCA
  8
0
 10
6611.0393538538128269
 20
295.6384179850645069
 30
0.0
 40
1.1695408050414779
 50
209.4086939556711968
 51
211.0870915778563131
  0
ARC
  5
2EDCB
  8
0
 10
6610.0034030026054097
 20
295.0544825600999275
 30
0.0
 40
0.0196499898469802
 50
29.408693955674071
 51
90.6177452045145486
  0
LINE
  5
2EDCC
  8
0
 10
6610.0031911466539896
 20
295.0741314078534856
 30
0.0
 11
6603.0755585220704234
 21
295.0741314332535126
 31
0.0
  0
ARC
  5
2EDCD
  8
0
 10
6603.0755585220704234
 20
294.5241314332535012
 30
0.0
 40
0.5500000000000007
 50
90.0
 51
180.0
  0
LINE
  5
2EDCE
  8
0
 10
6602.525558522069332
 20
294.5241314332535012
 30
0.0
 11
6602.525558522069332
 21
293.4972685182535201
 31
0.0
  0
ARC
  5
2EDCF
  8
0
 10
6602.6055585220692592
 20
293.4972685182535201
 30
0.0
 40
0.0799999999999983
 50
180.0
 51
225.0000000051448126
  0
LINE
  5
2EDD0
  8
0
 10
6602.5489899795802557
 20
293.4406999757534891
 30
0.0
 11
6602.6221270645810364
 21
293.3675628907651003
 31
0.0
  0
ARC
  5
2EDD1
  8
0
 10
6602.6786956070991437
 20
293.424131433293212
 30
0.0
 40
0.0800000000397416
 50
225.0000000051470863
 51
269.9999999787912088
  0
LINE
  5
2EDD2
  8
0
 10
6602.6786956070691303
 20
293.3441314332534944
 30
0.0
 11
6603.4724214370698974
 21
293.3441314329598981
 31
0.0
  0
ARC
  5
2EDD3
  8
0
 10
6603.4724214370999107
 20
293.4241314322043195
 30
0.0
 40
0.0799999992443947
 50
269.9999999787912088
 51
315.0000005163275887
  0
LINE
  5
2EDD4
  8
0
 10
6603.5289899795689053
 20
293.3675628907535042
 30
0.0
 11
6603.6021270639112117
 21
293.4406999764125885
 31
0.0
  0
ARC
  5
2EDD5
  8
0
 10
6603.5455585180970957
 20
293.4972685212073884
 30
0.0
 40
0.0800000039734918
 50
315.0000005163275887
 51
359.9999978844102202
  0
LINE
  5
2EDD6
  8
0
 10
6603.6255585220696958
 20
293.4972685182535201
 30
0.0
 11
6603.6255585344551946
 21
293.8327103553535267
 31
0.0
  0
ARC
  5
2EDD7
  8
0
 10
6603.7689473200462089
 20
293.8327103500590169
 30
0.0
 40
0.1433887855897212
 50
91.4866433030857564
 51
179.9999978844134887
  0
LINE
  5
2EDD8
  8
0
 10
6603.7652272544191874
 20
293.9760508710035083
 30
0.0
 11
6607.5893588557955809
 21
293.9741314332534898
 31
0.0
  0
ARC
  5
2EDD9
  8
0
 10
6607.5896010181440943
 20
293.9947610248142951
 30
0.0
 40
0.0206310128342574
 50
269.3274591435925913
 51
279.435392672540388
  0
ARC
  5
2EDDA
  8
0
 10
6607.5895558862102916
 20
293.9950326034880277
 30
0.0
 40
0.0209063160622969
 50
279.435392672540388
 51
310.2560767982316747
  0
ARC
  5
2EDDB
  8
0
 10
6528.0404806746473696
 20
373.7628601984105217
 30
0.0
 40
112.6750055898417031
 50
314.9204645892231724
 51
315.0265124697730812
  0
LINE
  5
2EDDC
  8
0
 10
6607.7505998654751238
 20
294.1264754031280972
 30
0.0
 11
6608.0578983375344251
 21
294.4337738752329869
 31
0.0
  0
ARC
  5
2EDDD
  8
0
 10
6608.2760407795458377
 20
294.2156314332535203
 30
0.0
 40
0.3085
 50
90.0
 51
135.0000000043434056
  0
ARC
  5
2EDDE
  8
0
 10
6608.8103098316496471
 20
293.7811214765001182
 30
0.0
 40
0.995742432195146
 50
124.9919519272544051
 51
138.8464165840435953
  0
ARC
  5
2EDDF
  8
0
 10
6608.4309776975333079
 20
294.3230258996804878
 30
0.0
 40
0.3342643359314954
 50
93.0467308840861733
 51
124.9919519272544051
  0
LINE
  5
2EDE0
  8
0
 10
6608.4132114047552022
 20
294.6568177586534034
 30
0.0
 11
6609.4438207323146344
 21
294.6568177650510734
 31
0.0
  0
CIRCLE
  5
2EDE1
  8
0
 10
6609.925893690853627
 20
294.5241314332535012
 30
0.0
 40
0.4999999999999992
  0
LINE
  5
2EDE2
  8
0
 10
6607.7513980311778141
 20
294.0771314332534985
 30
0.0
 11
6609.7018602112129884
 21
294.0771314332533848
 31
0.0
  0
ARC
  5
2EDE3
  8
0
 10
6607.7513980311778141
 20
294.0871314332534894
 30
0.0
 40
0.01
 50
134.9999999993389963
 51
270.0
  0
LINE
  5
2EDE4
  8
0
 10
6608.2760407795458377
 20
294.5241314332535012
 30
0.0
 11
6609.4258936908527176
 21
294.5241314332535012
 31
0.0
  0
LINE
  5
2EDE5
  8
0
 10
6607.867239285938922
 20
294.2171148236349723
 30
0.0
 11
6609.5312527146998036
 21
294.217115961428874
 31
0.0
  0
LINE
  5
2EDE6
  8
0
 10
6603.6669800837198636
 20
293.9327102486695935
 30
0.0
 11
6602.6866497924156647
 21
294.9130401629060998
 31
0.0
  0
LINE
  5
2EDE7
  8
0
 10
6603.6021270645696859
 20
293.4406999757534891
 30
0.0
 11
6602.5489899795702513
 21
293.4406999757534891
 31
0.0
  0
LINE
  5
2EDE8
  8
0
 10
6611.5839811077530612
 20
295.6174182509535058
 30
0.0
 11
6611.5839811077530612
 21
293.4308446155534966
 31
0.0
  0
LINE
  5
2EDE9
  8
0
 10
6611.6509017367552588
 20
293.3991314332535012
 30
0.0
 11
6611.6509017367552588
 21
293.2923460834534808
 31
0.0
  0
LINE
  5
2EDEA
  8
0
 10
6607.7443269633658929
 20
294.0942025010654106
 30
0.0
 11
6608.0838983375606404
 21
294.4337738752520863
 31
0.0
  0
ARC
  5
2EDEB
  8
0
 10
6608.3020407795538631
 20
294.2156314332535203
 30
0.0
 40
0.3085
 50
90.0
 51
134.9999999993389963
  0
ARC
  5
2EDEC
  8
0
 10
6607.8447914797552585
 20
293.9422790776534953
 30
0.0
 40
0.1968499999999997
 50
110.0795046481886033
 51
134.9757436411649962
  0
ARC
  5
2EDED
  8
0
 10
6607.8964688332553123
 20
293.9737646457996902
 30
0.0
 40
0.2118421522586564
 50
110.4852098372358995
 51
130.2932029121818118
  0
LINE
  5
2EDEE
  8
0
 10
6607.8970186520527932
 20
294.2728941896535275
 30
0.0
 11
6607.9250694426573318
 21
294.2749449803538937
 31
0.0
  0
ARC
  5
2EDEF
  8
0
 10
6610.4231305200173665
 20
295.5985422163932981
 30
0.0
 40
0.5480319456348887
 50
256.9362863501476113
 51
283.0638088033336999
  0
LINE
  5
2EDF0
  8
0
 10
6610.0465808566141277
 20
295.0260332223995761
 30
0.0
 11
6610.0415764303543256
 21
295.0346946648534754
 31
0.0
  0
ARC
  5
2EDF1
  8
0
 10
6610.0587304136379316
 20
295.0446059290409266
 30
0.0
 40
0.0198114184321301
 50
169.9908559381333077
 51
210.0185523470059934
  0
ARC
  5
2EDF2
  8
0
 10
6610.0590603730106523
 20
295.0445476940028016
 30
0.0
 40
0.0201464773927111
 50
90.4628895058827993
 51
169.9908559381429995
  0
ENDSEC
  0
EOF
