  0
SECTION
  2
HEADER
  9
$ACADVER
  1
AC1009
  9
$INSBASE
 10
6636.308690139513601
 20
282.7743555931892274
 30
0.0
  9
$EXTMIN
 10
6633.8086901395163295
 20
270.1346035357578899
 30
0.0
  9
$EXTMAX
 10
6641.9306918704460259
 20
285.4318476301580176
 30
0.0
  9
$LIMMIN
 10
0.0
 20
0.0
  9
$LIMMAX
 10
11.6929133858000007
 20
8.2677165353999982
  9
$ORTHOMODE
 70
     0
  9
$REGENMODE
 70
     1
  9
$FILLMODE
 70
     1
  9
$QTEXTMODE
 70
     0
  9
$MIRRTEXT
 70
     0
  9
$DRAGMODE
 70
     2
  9
$LTSCALE
 40
0.6431102362
  9
$OSMODE
 70
  4095
  9
$ATTMODE
 70
     1
  9
$TEXTSIZE
 40
0.2
  9
$TRACEWID
 40
0.05
  9
$TEXTSTYLE
  7
STANDARD
  9
$CLAYER
  8
0
  9
$CELTYPE
  6
BYLAYER
  9
$CECOLOR
 62
   256
  9
$DIMSCALE
 40
1.0
  9
$DIMASZ
 40
0.1875
  9
$DIMEXO
 40
0.0625
  9
$DIMDLI
 40
0.4443307087
  9
$DIMRND
 40
0.0
  9
$DIMDLE
 40
0.0
  9
$DIMEXE
 40
0.125
  9
$DIMTP
 40
0.01
  9
$DIMTM
 40
0.01
  9
$DIMTXT
 40
2.0
  9
$DIMCEN
 40
0.1052362205
  9
$DIMTSZ
 40
0.0
  9
$DIMTOL
 70
     1
  9
$DIMLIM
 70
     0
  9
$DIMTIH
 70
     1
  9
$DIMTOH
 70
     1
  9
$DIMSE1
 70
     0
  9
$DIMSE2
 70
     0
  9
$DIMTAD
 70
     0
  9
$DIMZIN
 70
     0
  9
$DIMBLK
  1

  9
$DIMASO
 70
     1
  9
$DIMSHO
 70
     1
  9
$DIMPOST
  1
\X
  9
$DIMAPOST
  1

  9
$DIMALT
 70
     1
  9
$DIMALTD
 70
     2
  9
$DIMALTF
 40
25.3999999999999986
  9
$DIMLFAC
 40
1.0
  9
$DIMTOFL
 70
     0
  9
$DIMTVP
 40
0.0
  9
$DIMTIX
 70
     0
  9
$DIMSOXD
 70
     0
  9
$DIMSAH
 70
     0
  9
$DIMBLK1
  1

  9
$DIMBLK2
  1

  9
$DIMSTYLE
  2
STANDARD
  9
$DIMCLRD
 70
     0
  9
$DIMCLRE
 70
     0
  9
$DIMCLRT
 70
     0
  9
$DIMTFAC
 40
1.0
  9
$DIMGAP
 40
0.09
  9
$LUNITS
 70
     2
  9
$LUPREC
 70
     4
  9
$SKETCHINC
 40
0.1
  9
$FILLETRAD
 40
0.0
  9
$AUNITS
 70
     0
  9
$AUPREC
 70
     0
  9
$MENU
  1
.
  9
$ELEVATION
 40
0.0
  9
$PELEVATION
 40
0.0
  9
$THICKNESS
 40
0.0
  9
$LIMCHECK
 70
     0
  9
$BLIPMODE
 70
     0
  9
$CHAMFERA
 40
0.0
  9
$CHAMFERB
 40
0.0
  9
$SKPOLY
 70
     0
  9
$TDCREATE
 40
2458060.468368056230247
  9
$TDUPDATE
 40
2460633.795613425783813
  9
$TDINDWG
 40
0.844358912
  9
$TDUSRTIMER
 40
0.844358912
  9
$USRTIMER
 70
     1
  9
$ANGBASE
 50
0.0
  9
$ANGDIR
 70
     0
  9
$PDMODE
 70
     0
  9
$PDSIZE
 40
0.3125
  9
$PLINEWID
 40
0.0
  9
$COORDS
 70
     1
  9
$SPLFRAME
 70
     0
  9
$SPLINETYPE
 70
     6
  9
$SPLINESEGS
 70
     8
  9
$ATTDIA
 70
     1
  9
$ATTREQ
 70
     1
  9
$HANDLING
 70
     1
  9
$HANDSEED
  5
2EF9C
  9
$SURFTAB1
 70
     6
  9
$SURFTAB2
 70
     6
  9
$SURFTYPE
 70
     6
  9
$SURFU
 70
     6
  9
$SURFV
 70
     6
  9
$UCSNAME
  2

  9
$UCSORG
 10
0.0
 20
0.0
 30
0.0
  9
$UCSXDIR
 10
1.0
 20
0.0
 30
0.0
  9
$UCSYDIR
 10
0.0
 20
1.0
 30
0.0
  9
$PUCSNAME
  2

  9
$PUCSORG
 10
0.0
 20
0.0
 30
0.0
  9
$PUCSXDIR
 10
1.0
 20
0.0
 30
0.0
  9
$PUCSYDIR
 10
0.0
 20
1.0
 30
0.0
  9
$USERI1
 70
     0
  9
$USERI2
 70
     0
  9
$USERI3
 70
     0
  9
$USERI4
 70
     0
  9
$USERI5
 70
     0
  9
$USERR1
 40
0.0
  9
$USERR2
 40
0.0
  9
$USERR3
 40
0.0
  9
$USERR4
 40
0.0
  9
$USERR5
 40
0.0
  9
$WORLDVIEW
 70
     1
  9
$SHADEDGE
 70
     3
  9
$SHADEDIF
 70
    70
  9
$TILEMODE
 70
     1
  9
$MAXACTVP
 70
    64
  9
$PLIMCHECK
 70
     0
  9
$PEXTMIN
 10
1.0000000000000000E+20
 20
1.0000000000000000E+20
 30
1.0000000000000000E+20
  9
$PEXTMAX
 10
-1.0000000000000000E+20
 20
-1.0000000000000000E+20
 30
-1.0000000000000000E+20
  9
$PLIMMIN
 10
0.0
 20
0.0
  9
$PLIMMAX
 10
12.0
 20
9.0
  9
$UNITMODE
 70
     0
  9
$VISRETAIN
 70
     1
  9
$PLINEGEN
 70
     0
  9
$PSLTSCALE
 70
     1
  0
ENDSEC
  0
SECTION
  2
TABLES
  0
TABLE
  2
VPORT
 70
     1
  0
VPORT
  2
*ACTIVE
 70
     0
 10
0.0
 20
0.0
 11
1.0
 21
1.0
 12
2726.5043345596691324
 22
145.203620480418806
 13
0.0
 23
0.0
 14
1.0
 24
1.0
 15
0.0
 25
0.0
 16
0.0
 26
0.0
 36
60.4960186965801583
 17
3911.3653564453120453
 27
132.5796051025390057
 37
0.0
 40
15.3923277422617204
 41
2.3631889763779519
 42
50.0
 43
0.0
 44
0.0
 50
0.0
 51
0.0
 71
     0
 72
   100
 73
     1
 74
     1
 75
     0
 76
     0
 77
     0
 78
     0
  0
ENDTAB
  0
TABLE
  2
LTYPE
 70
     2
  0
LTYPE
  2
CONTINUOUS
 70
     0
  3
Solid line
 72
    65
 73
     0
 40
0.0
  0
LTYPE
  2
PHANTOM2
 70
     0
  3
___ _ _ ___ _ _ ___ _ _ ___ _ _
 72
    65
 73
     6
 40
1.25
 49
0.625
 49
-0.125
 49
0.125
 49
-0.125
 49
0.125
 49
-0.125
  0
ENDTAB
  0
TABLE
  2
LAYER
 70
     2
  0
LAYER
  2
0
 70
     0
 62
   255
  6
CONTINUOUS
  0
LAYER
  2
DEFPOINTS
 70
     0
 62
     7
  6
CONTINUOUS
  0
ENDTAB
  0
TABLE
  2
STYLE
 70
     1
  0
STYLE
  2
STANDARD
 70
     0
 40
0.0
 41
0.8
 50
0.0
 71
     0
 42
0.2
  3
txt
  4

  0
ENDTAB
  0
TABLE
  2
VIEW
 70
     0
  0
ENDTAB
  0
TABLE
  2
UCS
 70
     0
  0
ENDTAB
  0
TABLE
  2
APPID
 70
    11
  0
APPID
  2
ACAD
 70
     0
  0
APPID
  2
ACAD_MLEADERVER
 70
     0
  0
APPID
  2
ACAD_EXEMPT_FROM_CAD_STANDARDS
 70
     0
  0
APPID
  2
ACAD_NAV_VCDISPLAY
 70
     0
  0
APPID
  2
ACAECLAYERSTANDARD
 70
     0
  0
APPID
  2
ACCMTRANSPARENCY
 70
     0
  0
APPID
  2
ACAD_DSTYLE_DIMJAG
 70
     0
  0
APPID
  2
ACAD_DSTYLE_DIMTALN
 70
     0
  0
APPID
  2
ACDBATTR
 70
     0
  0
APPID
  2
ACADANNOTATIVE
 70
     0
  0
APPID
  2
DCO15
 70
     0
  0
ENDTAB
  0
TABLE
  2
DIMSTYLE
 70
     1
  0
DIMSTYLE
  2
STANDARD
 70
     0
  3

  4

  5

  6

  7

 40
1.0
 41
0.1875
 42
0.0625
 43
0.38
 44
0.125
 45
0.0
 46
0.0
 47
0.01
 48
0.01
140
0.15625
141
0.09
142
0.0
143
25.3999999999999986
144
1.0
145
0.0
146
1.0
147
0.09
 71
     1
 72
     0
 73
     1
 74
     1
 75
     0
 76
     0
 77
     0
 78
     4
170
     0
171
     2
172
     0
173
     0
174
     0
175
     0
176
     0
177
     0
178
     0
  0
ENDTAB
  0
ENDSEC
  0
SECTION
  2
BLOCKS
  0
BLOCK
  8
0
  2
$MODEL_SPACE
 70
     0
 10
0.0
 20
0.0
 30
0.0
  3
$MODEL_SPACE
  1

  0
ENDBLK
  5
21
  8
0
  0
BLOCK
 67
     1
  8
0
  2
$PAPER_SPACE
 70
     0
 10
0.0
 20
0.0
 30
0.0
  3
$PAPER_SPACE
  1

  0
ENDBLK
  5
1D
 67
     1
  8
0
  0
ENDSEC
  0
SECTION
  2
ENTITIES
  0
ATTDEF
  5
26A5B
  8
DEFPOINTS
 10
6636.303581151742037
 20
282.7730347770618096
 30
0.0
 40
0.001
  1
P34586-BN
  3

  2
MODELNUMBER
 70
     0
1001
ACDBATTR
1070
     0
1070
     1
  0
ATTDEF
  5
26A5C
  8
DEFPOINTS
 10
6636.3034553420839075
 20
282.7713679366826227
 30
0.0
 40
0.001
  1
VICE
  3

  2
TRADENAME
 70
     0
1001
ACDBATTR
1070
     0
1070
     1
  0
ATTDEF
  5
26A5D
  8
DEFPOINTS
 10
6636.303581151742037
 20
282.7697014437284224
 30
0.0
 40
0.001
  1
BATH FAUCET
  3

  2
PRODUCT
 70
     0
1001
ACDBATTR
1070
     0
1070
     1
  0
LINE
  5
2EDE9
  8
0
 10
6641.2300927526957821
 20
283.5617571680891729
 30
0.0
 11
6637.0836222120060484
 21
283.5617571680891729
 31
0.0
  0
LINE
  5
2EDEA
  8
0
 10
6641.5126993121693886
 20
283.109001262489187
 30
0.0
 11
6641.9110114617642466
 21
283.109001262489187
 31
0.0
  0
ARC
  5
2EDEB
  8
0
 10
6641.2300213673770486
 20
282.7744732013979956
 30
0.0
 40
0.7872839699275767
 50
27.4812310652609213
 51
90.0051951775222676
  0
ARC
  5
2EDEC
  8
0
 10
6641.9110426092356647
 20
283.1286950508247173
 30
0.0
 40
0.0196492612113435
 50
359.9687030225416038
 51
27.5119493834063107
  0
ARC
  5
2EDED
  8
0
 10
6641.9110091450193067
 20
283.128683984851591
 30
0.0
 40
0.0196827224987638
 50
269.9932558570134802
 51
0.0009689258620181
  0
ARC
  5
2EDEE
  8
0
 10
6640.2073789829391899
 20
283.386299111751498
 30
0.0
 40
0.1236465008515954
 50
119.4316495963300042
 51
164.2821601808572041
  0
ARC
  5
2EDEF
  8
0
 10
6640.2898438911433914
 20
283.2401363178656766
 30
0.0
 40
0.291467904140338
 50
93.8233058498651502
 51
119.4316495963300042
  0
ARC
  5
2EDF0
  8
0
 10
6640.3954440085635724
 20
282.5263793380523225
 30
0.0
 40
1.012327579023965
 50
89.7437107151587981
 51
97.094863698645824
  0
ARC
  5
2EDF1
  8
0
 10
6641.2299499820146593
 20
282.7743555931892274
 30
0.0
 40
0.4294894821000029
 50
52.9135653016310314
 51
307.0864346983689757
  0
ARC
  5
2EDF2
  8
0
 10
6641.5126993121693886
 20
282.4003099238892105
 30
0.0
 40
0.0394
 50
90.0
 51
127.0864346983689046
  0
ARC
  5
2EDF3
  8
0
 10
6641.5126993121693886
 20
283.1484012624899833
 30
0.0
 40
0.0394
 50
232.9135653021461962
 51
269.999999999791612
  0
LINE
  5
2EDF4
  8
0
 10
6640.3999722277148976
 20
283.5386967894892223
 30
0.0
 11
6641.2299499820146593
 21
283.5386982670892166
 31
0.0
  0
ARC
  5
2EDF5
  8
0
 10
6641.2299499670953082
 20
282.7743555436557017
 30
0.0
 40
0.7643427234335812
 50
28.3894556035288801
 51
90.0000043483884014
  0
ARC
  5
2EDF6
  8
0
 10
6641.8852138060528887
 20
283.1284995487549736
 30
0.0
 40
0.0195013477074313
 50
271.0152523140567951
 51
28.3894556035317507
  0
ARC
  5
2EDF7
  8
0
 10
6643.1806953655859616
 20
282.8147898183461848
 30
0.0
 40
3.1509667265792589
 50
168.9301592964912118
 51
180.7352642294592044
  0
ARC
  5
2EDF8
  8
0
 10
6641.2299499819946504
 20
282.7743555931186279
 30
0.0
 40
0.5910051975705813
 50
36.8368538416861
 51
89.9999999983324841
  0
LINE
  5
2EDF9
  8
0
 10
6641.2299499820146593
 20
283.3653607906891807
 30
0.0
 11
6640.3969506630674005
 21
283.365384075832992
 31
0.0
  0
ARC
  5
2EDFA
  8
0
 10
6640.3858682163554477
 20
283.1715542770842831
 30
0.0
 40
0.1941463661984803
 50
86.7276092563400738
 51
130.0720276587890964
  0
ARC
  5
2EDFB
  8
0
 10
6640.3671274466287286
 20
283.2150914477999777
 30
0.0
 40
0.14939399721936
 50
135.3282509029536129
 51
172.5753719834434037
  0
ARC
  5
2EDFC
  8
0
 10
6643.0926386160981565
 20
282.793690712916316
 30
0.0
 40
2.907312838419986
 50
171.2811955122049028
 51
180.3810490940707041
  0
LINE
  5
2EDFD
  8
0
 10
6641.7029585692489491
 20
283.1286859755663841
 30
0.0
 11
6641.7029585692489491
 21
283.109001262489187
 31
0.0
  0
ARC
  5
2EDFE
  8
0
 10
6641.3900648165226812
 20
282.7500440153619934
 30
0.0
 40
0.5914384379094921
 50
154.2173656294804971
 51
171.544291690047487
  0
ARC
  5
2EDFF
  8
0
 10
6641.1796847856139721
 20
282.774355145702998
 30
0.0
 40
0.3984512240987069
 50
144.1720493879971912
 51
215.827692351827892
  0
ARC
  5
2EE00
  8
0
 10
6641.4072381825526463
 20
282.7993170234826152
 30
0.0
 40
0.6081415899636184
 50
191.1704900367683138
 51
205.1230817782929137
  0
ARC
  5
2EE01
  8
0
 10
6636.308690139513601
 20
282.7743555931892274
 30
0.0
 40
2.500000000000004
 50
101.3422738374693068
 51
253.3836014708373909
  0
ARC
  5
2EE02
  8
0
 10
6636.308690139513601
 20
282.7743555931892274
 30
0.0
 40
2.500000000000004
 50
286.6163687718159281
 51
341.641562922330877
  0
ARC
  5
2EE03
  8
0
 10
6636.308690139513601
 20
282.7743555931892274
 30
0.0
 40
2.500000000000004
 50
18.3584370776690804
 51
78.6581293828251944
  0
LINE
  5
2EE04
  8
0
 10
6635.5576588305148107
 20
270.8745528119891901
 30
0.0
 11
6635.5586900197149589
 21
277.5074689875892204
 31
0.0
  0
LINE
  5
2EE05
  8
0
 10
6635.5937835505155817
 20
277.9595274526893149
 30
0.0
 11
6635.5937835505155817
 21
281.9215053577892149
 31
0.0
  0
ARC
  5
2EE06
  8
0
 10
6634.6434882644980462
 20
281.927279182655127
 30
0.0
 40
0.9502772695692614
 50
359.6518722894609823
 51
7.9894612280487101
  0
ARC
  5
2EE07
  8
0
 10
6635.3485941821008964
 20
282.0219504876288283
 30
0.0
 40
0.2388947254844603
 50
9.0090500586953706
 51
29.6138738183637216
  0
LINE
  5
2EE08
  8
0
 10
6635.9255592373156105
 20
278.4830170084891847
 30
0.0
 11
6635.9255592373156105
 21
282.9378778534892263
 31
0.0
  0
LINE
  5
2EE09
  8
0
 10
6635.9255592373156105
 20
282.9378778534892263
 30
0.0
 11
6635.9312680929151611
 21
283.2575563633891989
 31
0.0
  0
LINE
  5
2EE0A
  8
0
 10
6635.8213008157863442
 20
283.4909006197395911
 30
0.0
 11
6635.8206537373152969
 21
283.3839308716893015
 31
0.0
  0
LINE
  5
2EE0B
  8
0
 10
6635.8206537373152969
 20
283.3839308716893015
 30
0.0
 11
6635.8143973058140546
 21
278.4851285163891816
 31
0.0
  0
LINE
  5
2EE0C
  8
0
 10
6635.6787688797148803
 20
283.5081614782893098
 30
0.0
 11
6635.6787688797148803
 21
278.483017010589208
 31
0.0
  0
ARC
  5
2EE0D
  8
0
 10
6636.3086902208151514
 20
278.4830049414891846
 30
0.0
 40
0.3831309836900297
 50
179.998195423148303
 51
0.0027432913653835
  0
ARC
  5
2EE0E
  8
0
 10
6636.3086895174201345
 20
278.4826061722347958
 30
0.0
 40
0.4942986472510996
 50
179.7076255366364137
 51
0.0462226588703277
  0
ARC
  5
2EE0F
  8
0
 10
6636.3086902290642684
 20
278.4813396179980032
 30
0.0
 40
0.6299235826758048
 50
179.8474296981532063
 51
0.1531412467984649
  0
LINE
  5
2EE10
  8
0
 10
6635.6925484072553445
 20
283.5219299326798819
 30
0.0
 11
6635.7873433861377634
 21
283.5223870892892251
 31
0.0
  0
ARC
  5
2EE11
  8
0
 10
6635.6917411814856678
 20
283.5089583789293783
 30
0.0
 40
0.0129967558985503
 50
86.4318653410901732
 51
183.515315820932301
  0
ARC
  5
2EE12
  8
0
 10
6635.7903477084919359
 20
283.4915727952309794
 30
0.0
 40
0.0309604048926232
 50
358.7559644297813861
 51
95.5686057230794006
  0
ARC
  5
2EE13
  8
0
 10
6635.9603169728243302
 20
283.3955359422361084
 30
0.0
 40
0.1410042609382845
 50
187.8791426517051093
 51
258.1111242527309173
  0
ARC
  5
2EE14
  8
0
 10
6636.308690139513601
 20
282.7743555931892274
 30
0.0
 40
0.9841350822713411
 50
309.7975001396757193
 51
230.2025121626190867
  0
LINE
  5
2EE15
  8
0
 10
6635.6197020396821245
 20
284.738489834441225
 30
0.0
 11
6635.6197020396821245
 21
283.5817693479090167
 31
0.0
  0
ARC
  5
2EE16
  8
0
 10
6636.3086832128446986
 20
284.7428526439060761
 30
0.0
 40
0.6889949862518625
 50
359.6663577559697274
 51
180.3628070517825961
  0
CIRCLE
  5
2EE17
  8
0
 10
6636.308690139513601
 20
284.7428595302893086
 30
0.0
 40
0.3169291338999969
  0
ARC
  5
2EE18
  8
0
 10
6636.308690139513601
 20
282.7743555931892274
 30
0.0
 40
2.0814725362999988
 50
109.3300862098072059
 51
249.9120650745340981
  0
ARC
  5
2EE19
  8
0
 10
6636.308690139513601
 20
282.7743555931892274
 30
0.0
 40
2.0814725362999988
 50
290.0878984588961202
 51
337.7721589999978846
  0
ARC
  5
2EE1A
  8
0
 10
6636.308690139513601
 20
282.7743555931892274
 30
0.0
 40
2.0814725362999988
 50
22.2278410000021402
 51
70.6702557275687013
  0
ARC
  5
2EE1B
  8
0
 10
6636.308690139513601
 20
282.7743555931892274
 30
0.0
 40
1.035433070899999
 50
131.9874720289475931
 51
225.8993799569109058
  0
ARC
  5
2EE1C
  8
0
 10
6635.3216714895634141
 20
283.5917510674295841
 30
0.0
 40
0.2981976584888023
 50
324.0345146001919261
 51
358.0817513473899112
  0
ARC
  5
2EE1D
  8
0
 10
6637.0832431500939492
 20
284.2029250394717792
 30
0.0
 40
0.6411679834343152
 50
242.8201010221393972
 51
270.0338735706582156
  0
LINE
  5
2EE1E
  8
0
 10
6635.9312680929151611
 20
283.2575563633891989
 30
0.0
 11
6636.6861124605629811
 21
283.2575563633891989
 31
0.0
  0
LINE
  5
2EE1F
  8
0
 10
6636.9976665175154267
 20
284.7388405415114789
 30
0.0
 11
6636.9976665175154267
 21
283.5675668034111254
 31
0.0
  0
LINE
  5
2EE20
  8
0
 10
6636.6918212040664002
 20
278.4830232855993017
 30
0.0
 11
6636.6918212040664002
 21
282.9378841305992864
 31
0.0
  0
LINE
  5
2EE21
  8
0
 10
6636.6918212040664002
 20
282.9378841305992864
 30
0.0
 11
6636.6861124605629811
 21
283.2575563633891989
 31
0.0
  0
LINE
  5
2EE22
  8
0
 10
6636.7960796255938476
 20
283.4909068968498218
 30
0.0
 11
6636.7967267040658044
 21
283.3839371487993049
 31
0.0
  0
LINE
  5
2EE23
  8
0
 10
6636.7967267040658044
 20
283.3839371487993049
 30
0.0
 11
6636.8029880038211559
 21
278.4830049414891846
 31
0.0
  0
LINE
  5
2EE24
  8
0
 10
6636.938611561666221
 20
283.5081677553993131
 30
0.0
 11
6636.938611561666221
 21
278.483023287699325
 31
0.0
  0
LINE
  5
2EE25
  8
0
 10
6636.9248320341248473
 20
283.5219362097899989
 30
0.0
 11
6636.8300370552433378
 21
283.5223933663992852
 31
0.0
  0
ARC
  5
2EE26
  8
0
 10
6636.9256392598936145
 20
283.5089646560394954
 30
0.0
 40
0.0129967558985503
 50
356.4846841790644021
 51
93.5681346589098268
  0
ARC
  5
2EE27
  8
0
 10
6636.8270327328900748
 20
283.4915790723412101
 30
0.0
 40
0.0309604048926232
 50
84.4313942769206136
 51
181.2440355702186139
  0
ARC
  5
2EE28
  8
0
 10
6636.656634630426197
 20
283.3959347007790939
 30
0.0
 40
0.141483238330213
 50
282.0255916613386944
 51
351.9872230416232242
  0
ARC
  5
2EE29
  8
0
 10
6636.3086895174201345
 20
270.8857171997451019
 30
0.0
 40
0.7511136639872033
 50
180.8516631853192962
 51
359.1483368146805901
  0
ARC
  5
2EE2A
  8
0
 10
6633.215728213969669
 20
278.0058899773691223
 30
0.0
 40
2.378507235088577
 50
352.1561094945001855
 51
358.8831039923297226
  0
ARC
  5
2EE2B
  8
0
 10
6637.0490534257978652
 20
277.480921372357102
 30
0.0
 40
1.4905998316332689
 50
172.2750476821429118
 51
178.9795069736061066
  0
LINE
  5
2EE2C
  8
0
 10
6637.0597202043272773
 20
270.8745528119891901
 30
0.0
 11
6637.0586890151271291
 21
277.5074689875892204
 31
0.0
  0
LINE
  5
2EE2D
  8
0
 10
6637.0235954843283253
 20
277.9595274526893149
 30
0.0
 11
6637.0235954843283253
 21
281.9215053577892149
 31
0.0
  0
ARC
  5
2EE2E
  8
0
 10
6639.401650820872419
 20
278.0058899773691223
 30
0.0
 40
2.378507235088577
 50
181.1168960076703058
 51
187.8438905054997861
  0
ARC
  5
2EE2F
  8
0
 10
6635.5683256090442228
 20
277.480921372357102
 30
0.0
 40
1.4905998316332689
 50
1.0204930263971701
 51
7.7249523178570367
  0
ARC
  5
2EE30
  8
0
 10
6637.9705991522650947
 20
281.9270066532441206
 30
0.0
 40
0.9470196463393801
 50
171.6847474687295119
 51
180.3328322521844029
  0
ARC
  5
2EE31
  8
0
 10
6637.2288084604815595
 20
282.0338603292286734
 30
0.0
 40
0.1975800786790954
 50
145.3660445829951868
 51
171.2360955332709125
  0
LINE
  5
2EE32
  8
0
 10
6641.2300927526957821
 20
281.9869540182892251
 30
0.0
 11
6637.0254787768762981
 21
281.9869540182892251
 31
0.0
  0
ARC
  5
2EE33
  8
0
 10
6641.2300213673770486
 20
282.7742379849805161
 30
0.0
 40
0.7872839699275767
 50
269.994804822477704
 51
332.5187689347391142
  0
ARC
  5
2EE34
  8
0
 10
6641.9110426092356647
 20
282.4200161355537944
 30
0.0
 40
0.0196492612113435
 50
332.4880506165936822
 51
0.0312969774583974
  0
ARC
  5
2EE35
  8
0
 10
6641.9110091450193067
 20
282.4200272015268069
 30
0.0
 40
0.0196827224987638
 50
359.9990310741379744
 51
90.0067441429864488
  0
ARC
  5
2EE36
  8
0
 10
6640.2073789829391899
 20
282.1624120746269
 30
0.0
 40
0.1236465008515954
 50
195.7178398191427959
 51
240.5683504036699958
  0
ARC
  5
2EE37
  8
0
 10
6640.2898438911433914
 20
282.3085748685127214
 30
0.0
 40
0.291467904140338
 50
240.5683504036699958
 51
266.1766941501347787
  0
ARC
  5
2EE38
  8
0
 10
6640.3954440085635724
 20
283.0223318483261892
 30
0.0
 40
1.012327579023965
 50
262.9051363013541049
 51
270.2562892848412162
  0
LINE
  5
2EE39
  8
0
 10
6640.3999722277148976
 20
282.0100143968891757
 30
0.0
 11
6641.2299499820146593
 21
282.0100129192891814
 31
0.0
  0
ARC
  5
2EE3A
  8
0
 10
6641.2299499670953082
 20
282.77435564272281
 30
0.0
 40
0.7643427234335812
 50
269.9999956516115844
 51
331.6105443964710844
  0
ARC
  5
2EE3B
  8
0
 10
6641.8852138060528887
 20
282.4202116376234244
 30
0.0
 40
0.0195013477074313
 50
331.6105443964682991
 51
88.9847476859432334
  0
ARC
  5
2EE3C
  8
0
 10
6642.7962332349852659
 20
282.6991538022688815
 30
0.0
 40
2.767267150239054
 50
178.4427753371682002
 51
191.8918117460787016
  0
ARC
  5
2EE3D
  8
0
 10
6641.2299499819946504
 20
282.7743555932597133
 30
0.0
 40
0.5910051975705813
 50
270.0000000016675017
 51
323.1631461583139071
  0
LINE
  5
2EE3E
  8
0
 10
6641.2299499820146593
 20
282.1833503956892173
 30
0.0
 11
6640.3969506630674005
 21
282.1833271105455196
 31
0.0
  0
ARC
  5
2EE3F
  8
0
 10
6640.3858682163554477
 20
282.3771569092940013
 30
0.0
 40
0.1941463661984803
 50
229.9279723412109036
 51
273.272390743659912
  0
ARC
  5
2EE40
  8
0
 10
6640.3671274466287286
 20
282.3336197385784772
 30
0.0
 40
0.14939399721936
 50
187.4246280165565963
 51
224.6717490970463871
  0
ARC
  5
2EE41
  8
0
 10
6643.0926386160981565
 20
282.755020473462082
 30
0.0
 40
2.907312838419986
 50
179.6189509059292959
 51
188.7188044877950119
  0
LINE
  5
2EE42
  8
0
 10
6641.7029585692489491
 20
282.4200252108120139
 30
0.0
 11
6641.7029585692489491
 21
282.439709923889211
 31
0.0
  0
LINE
  5
2EE43
  8
0
 10
6641.9110068282152497
 20
282.439709923889211
 30
0.0
 11
6641.5126993121693886
 21
282.439709923889211
 31
0.0
  0
LINE
  5
2EE44
  8
0
 10
6636.1767908772153532
 20
283.7781895511892003
 30
0.0
 11
6636.440592452015153
 21
283.7781895511892003
 31
0.0
  0
LINE
  5
2EE45
  8
0
 10
6636.4523924520162836
 20
283.7663895511892065
 30
0.0
 11
6636.4523924520162836
 21
283.7479425207613986
 31
0.0
  0
ARC
  5
2EE46
  8
0
 10
6636.440592452015153
 20
283.7663895511892065
 30
0.0
 40
0.0118
 50
0.0
 51
90.0
  0
LINE
  5
2EE47
  8
0
 10
6636.1649908772151321
 20
283.7663895511892065
 30
0.0
 11
6636.1649908772151321
 21
283.7479429709687793
 31
0.0
  0
ARC
  5
2EE48
  8
0
 10
6636.1767908772153532
 20
283.7663895511892065
 30
0.0
 40
0.0118
 50
90.0
 51
180.0
  0
ARC
  5
2EE49
  8
0
 10
6635.5956027544407334
 20
283.9121464380710904
 30
0.0
 40
0.4564938695331718
 50
298.6042547468995281
 51
319.0483842175049176
  0
LINE
  5
2EE4A
  8
0
 10
6635.9403758341140929
 20
283.6129505549891974
 30
0.0
 11
6635.9403758341140929
 21
283.3335350993169186
 31
0.0
  0
LINE
  5
2EE4B
  8
0
 10
6635.9403758341140929
 20
283.6129505549891974
 30
0.0
 11
6635.7936364042598143
 21
283.6129505549891974
 31
0.0
  0
ARC
  5
2EE4C
  8
0
 10
6635.7261608326689384
 20
283.5079370441000037
 30
0.0
 40
0.047431116593572
 50
130.7473484301264932
 51
178.4520105599293061
  0
ARC
  5
2EE4D
  8
0
 10
6636.8883588412645622
 20
283.5074738680642099
 30
0.0
 40
0.0502567541340113
 50
3.8002282133129222
 51
41.9416264216188281
  0
ARC
  5
2EE4E
  8
0
 10
6637.0217805747897728
 20
283.9121464380710904
 30
0.0
 40
0.4564938695331718
 50
220.9516157824951108
 51
241.3957452531005003
  0
LINE
  5
2EE4F
  8
0
 10
6636.6770074951164133
 20
283.6129505549891974
 30
0.0
 11
6636.6770074951164133
 21
283.3335350762613984
 31
0.0
  0
LINE
  5
2EE50
  8
0
 10
6636.6770074951164133
 20
283.6129505549891974
 30
0.0
 11
6636.8237469249706919
 21
283.6129505549891974
 31
0.0
  0
LINE
  5
2EE51
  8
0
 10
6635.9403758341140929
 20
283.3335350993169186
 30
0.0
 11
6636.6770074951164133
 21
283.3335350762613984
 31
0.0
  0
ENDSEC
  0
EOF
