  0
SECTION
  2
HEADER
  9
$ACADVER
  1
AC1009
  9
$INSBASE
 10
6811.7396837247206349
 20
289.1336863635979739
 30
0.0
  9
$EXTMIN
 10
6809.2396837247224539
 20
289.1336863635979739
 30
0.0
  9
$EXTMAX
 10
6817.3616854527226678
 20
328.9604580171979933
 30
0.0
  9
$LIMMIN
 10
0.0
 20
0.0
  9
$LIMMAX
 10
11.6929133858000007
 20
8.2677165353999982
  9
$ORTHOMODE
 70
     0
  9
$REGENMODE
 70
     1
  9
$FILLMODE
 70
     1
  9
$QTEXTMODE
 70
     0
  9
$MIRRTEXT
 70
     0
  9
$DRAGMODE
 70
     2
  9
$LTSCALE
 40
0.6431102362
  9
$OSMODE
 70
  4095
  9
$ATTMODE
 70
     1
  9
$TEXTSIZE
 40
0.2
  9
$TRACEWID
 40
0.05
  9
$TEXTSTYLE
  7
STANDARD
  9
$CLAYER
  8
0
  9
$CELTYPE
  6
BYLAYER
  9
$CECOLOR
 62
   256
  9
$DIMSCALE
 40
1.0
  9
$DIMASZ
 40
0.1875
  9
$DIMEXO
 40
0.0625
  9
$DIMDLI
 40
0.4443307087
  9
$DIMRND
 40
0.0
  9
$DIMDLE
 40
0.0
  9
$DIMEXE
 40
0.125
  9
$DIMTP
 40
0.01
  9
$DIMTM
 40
0.01
  9
$DIMTXT
 40
2.0
  9
$DIMCEN
 40
0.1052362205
  9
$DIMTSZ
 40
0.0
  9
$DIMTOL
 70
     1
  9
$DIMLIM
 70
     0
  9
$DIMTIH
 70
     1
  9
$DIMTOH
 70
     1
  9
$DIMSE1
 70
     0
  9
$DIMSE2
 70
     0
  9
$DIMTAD
 70
     0
  9
$DIMZIN
 70
     0
  9
$DIMBLK
  1

  9
$DIMASO
 70
     1
  9
$DIMSHO
 70
     1
  9
$DIMPOST
  1
\X
  9
$DIMAPOST
  1

  9
$DIMALT
 70
     1
  9
$DIMALTD
 70
     2
  9
$DIMALTF
 40
25.3999999999999986
  9
$DIMLFAC
 40
1.0
  9
$DIMTOFL
 70
     0
  9
$DIMTVP
 40
0.0
  9
$DIMTIX
 70
     0
  9
$DIMSOXD
 70
     0
  9
$DIMSAH
 70
     0
  9
$DIMBLK1
  1

  9
$DIMBLK2
  1

  9
$DIMSTYLE
  2
STANDARD
  9
$DIMCLRD
 70
     0
  9
$DIMCLRE
 70
     0
  9
$DIMCLRT
 70
     0
  9
$DIMTFAC
 40
1.0
  9
$DIMGAP
 40
0.09
  9
$LUNITS
 70
     2
  9
$LUPREC
 70
     4
  9
$SKETCHINC
 40
0.1
  9
$FILLETRAD
 40
0.0
  9
$AUNITS
 70
     0
  9
$AUPREC
 70
     0
  9
$MENU
  1
.
  9
$ELEVATION
 40
0.0
  9
$PELEVATION
 40
0.0
  9
$THICKNESS
 40
0.0
  9
$LIMCHECK
 70
     0
  9
$BLIPMODE
 70
     0
  9
$CHAMFERA
 40
0.0
  9
$CHAMFERB
 40
0.0
  9
$SKPOLY
 70
     0
  9
$TDCREATE
 40
2458060.468368056230247
  9
$TDUPDATE
 40
2460633.8106481479480863
  9
$TDINDWG
 40
0.8470672454
  9
$TDUSRTIMER
 40
0.8470672454
  9
$USRTIMER
 70
     1
  9
$ANGBASE
 50
0.0
  9
$ANGDIR
 70
     0
  9
$PDMODE
 70
     0
  9
$PDSIZE
 40
0.3125
  9
$PLINEWID
 40
0.0
  9
$COORDS
 70
     1
  9
$SPLFRAME
 70
     0
  9
$SPLINETYPE
 70
     6
  9
$SPLINESEGS
 70
     8
  9
$ATTDIA
 70
     1
  9
$ATTREQ
 70
     1
  9
$HANDLING
 70
     1
  9
$HANDSEED
  5
2F135
  9
$SURFTAB1
 70
     6
  9
$SURFTAB2
 70
     6
  9
$SURFTYPE
 70
     6
  9
$SURFU
 70
     6
  9
$SURFV
 70
     6
  9
$UCSNAME
  2

  9
$UCSORG
 10
0.0
 20
0.0
 30
0.0
  9
$UCSXDIR
 10
1.0
 20
0.0
 30
0.0
  9
$UCSYDIR
 10
0.0
 20
1.0
 30
0.0
  9
$PUCSNAME
  2

  9
$PUCSORG
 10
0.0
 20
0.0
 30
0.0
  9
$PUCSXDIR
 10
1.0
 20
0.0
 30
0.0
  9
$PUCSYDIR
 10
0.0
 20
1.0
 30
0.0
  9
$USERI1
 70
     0
  9
$USERI2
 70
     0
  9
$USERI3
 70
     0
  9
$USERI4
 70
     0
  9
$USERI5
 70
     0
  9
$USERR1
 40
0.0
  9
$USERR2
 40
0.0
  9
$USERR3
 40
0.0
  9
$USERR4
 40
0.0
  9
$USERR5
 40
0.0
  9
$WORLDVIEW
 70
     1
  9
$SHADEDGE
 70
     3
  9
$SHADEDIF
 70
    70
  9
$TILEMODE
 70
     1
  9
$MAXACTVP
 70
    64
  9
$PLIMCHECK
 70
     0
  9
$PEXTMIN
 10
1.0000000000000000E+20
 20
1.0000000000000000E+20
 30
1.0000000000000000E+20
  9
$PEXTMAX
 10
-1.0000000000000000E+20
 20
-1.0000000000000000E+20
 30
-1.0000000000000000E+20
  9
$PLIMMIN
 10
0.0
 20
0.0
  9
$PLIMMAX
 10
12.0
 20
9.0
  9
$UNITMODE
 70
     0
  9
$VISRETAIN
 70
     1
  9
$PLINEGEN
 70
     0
  9
$PSLTSCALE
 70
     1
  0
ENDSEC
  0
SECTION
  2
TABLES
  0
TABLE
  2
VPORT
 70
     1
  0
VPORT
  2
*ACTIVE
 70
     0
 10
0.0
 20
0.0
 11
1.0
 21
1.0
 12
2901.9353281434091514
 22
176.4674670878588927
 13
0.0
 23
0.0
 14
1.0
 24
1.0
 15
0.0
 25
0.0
 16
0.0
 26
0.0
 36
60.4960186965801583
 17
3911.3653564453120453
 27
132.5796051025390057
 37
0.0
 40
40.0622379797169117
 41
2.3631889763779519
 42
50.0
 43
0.0
 44
0.0
 50
0.0
 51
0.0
 71
     0
 72
   100
 73
     1
 74
     1
 75
     0
 76
     0
 77
     0
 78
     0
  0
ENDTAB
  0
TABLE
  2
LTYPE
 70
     2
  0
LTYPE
  2
CONTINUOUS
 70
     0
  3
Solid line
 72
    65
 73
     0
 40
0.0
  0
LTYPE
  2
PHANTOM2
 70
     0
  3
___ _ _ ___ _ _ ___ _ _ ___ _ _
 72
    65
 73
     6
 40
1.25
 49
0.625
 49
-0.125
 49
0.125
 49
-0.125
 49
0.125
 49
-0.125
  0
ENDTAB
  0
TABLE
  2
LAYER
 70
     2
  0
LAYER
  2
0
 70
     0
 62
   255
  6
CONTINUOUS
  0
LAYER
  2
DEFPOINTS
 70
     0
 62
     7
  6
CONTINUOUS
  0
ENDTAB
  0
TABLE
  2
STYLE
 70
     1
  0
STYLE
  2
STANDARD
 70
     0
 40
0.0
 41
0.8
 50
0.0
 71
     0
 42
0.2
  3
txt
  4

  0
ENDTAB
  0
TABLE
  2
VIEW
 70
     0
  0
ENDTAB
  0
TABLE
  2
UCS
 70
     0
  0
ENDTAB
  0
TABLE
  2
APPID
 70
    11
  0
APPID
  2
ACAD
 70
     0
  0
APPID
  2
ACAD_MLEADERVER
 70
     0
  0
APPID
  2
ACAD_EXEMPT_FROM_CAD_STANDARDS
 70
     0
  0
APPID
  2
ACAD_NAV_VCDISPLAY
 70
     0
  0
APPID
  2
ACAECLAYERSTANDARD
 70
     0
  0
APPID
  2
ACCMTRANSPARENCY
 70
     0
  0
APPID
  2
ACAD_DSTYLE_DIMJAG
 70
     0
  0
APPID
  2
ACAD_DSTYLE_DIMTALN
 70
     0
  0
APPID
  2
ACDBATTR
 70
     0
  0
APPID
  2
ACADANNOTATIVE
 70
     0
  0
APPID
  2
DCO15
 70
     0
  0
ENDTAB
  0
TABLE
  2
DIMSTYLE
 70
     1
  0
DIMSTYLE
  2
STANDARD
 70
     0
  3

  4

  5

  6

  7

 40
1.0
 41
0.1875
 42
0.0625
 43
0.38
 44
0.125
 45
0.0
 46
0.0
 47
0.01
 48
0.01
140
0.15625
141
0.09
142
0.0
143
25.3999999999999986
144
1.0
145
0.0
146
1.0
147
0.09
 71
     1
 72
     0
 73
     1
 74
     1
 75
     0
 76
     0
 77
     0
 78
     4
170
     0
171
     2
172
     0
173
     0
174
     0
175
     0
176
     0
177
     0
178
     0
  0
ENDTAB
  0
ENDSEC
  0
SECTION
  2
BLOCKS
  0
BLOCK
  8
0
  2
$MODEL_SPACE
 70
     0
 10
0.0
 20
0.0
 30
0.0
  3
$MODEL_SPACE
  1

  0
ENDBLK
  5
21
  8
0
  0
BLOCK
 67
     1
  8
0
  2
$PAPER_SPACE
 70
     0
 10
0.0
 20
0.0
 30
0.0
  3
$PAPER_SPACE
  1

  0
ENDBLK
  5
1D
 67
     1
  8
0
  0
ENDSEC
  0
SECTION
  2
ENTITIES
  0
ATTDEF
  5
26A5B
  8
DEFPOINTS
 10
6811.7357736039202791
 20
289.1372347240928207
 30
0.0
 40
0.001
  1
P34586-BV
  3

  2
MODELNUMBER
 70
     0
1001
ACDBATTR
1070
     0
1070
     1
  0
ATTDEF
  5
26A5C
  8
DEFPOINTS
 10
6811.7356477942621495
 20
289.135567883713577
 30
0.0
 40
0.001
  1
VICE
  3

  2
TRADENAME
 70
     0
1001
ACDBATTR
1070
     0
1070
     1
  0
ATTDEF
  5
26A5D
  8
DEFPOINTS
 10
6811.7357736039202791
 20
289.1339013907594904
 30
0.0
 40
0.001
  1
BATH FAUCET
  3

  2
PRODUCT
 70
     0
1001
ACDBATTR
1070
     0
1070
     1
  0
LINE
  5
2EF21
  8
0
 10
6811.1273631056219529
 20
322.598253292798006
 30
0.0
 11
6812.352004343821136
 21
322.598253292798006
 31
0.0
  0
LINE
  5
2EF22
  8
0
 10
6811.0035211996391808
 20
322.702526054097973
 30
0.0
 11
6812.4758462498220979
 21
322.702526054097973
 31
0.0
  0
LINE
  5
2EF23
  8
0
 10
6811.0035211996391808
 20
322.702526054097973
 30
0.0
 11
6811.0939564860218525
 21
322.612090767698021
 31
0.0
  0
LINE
  5
2EF24
  8
0
 10
6812.4758462498220979
 20
322.702526054097973
 30
0.0
 11
6812.3854109634221459
 21
322.612090767698021
 31
0.0
  0
LINE
  5
2EF25
  8
0
 10
6810.9895145532009337
 20
324.2026283051533824
 30
0.0
 11
6810.9895145532009337
 21
322.7359326736980165
 31
0.0
  0
ARC
  5
2EF26
  8
0
 10
6811.0377185750758144
 20
322.7365038928990089
 30
0.0
 40
0.0482074062408856
 50
180.6789250420189035
 51
224.8154977663978116
  0
ARC
  5
2EF27
  8
0
 10
6811.1273631056592421
 20
322.6454973874239158
 30
0.0
 40
0.0472440946259099
 50
225.0000000770100996
 51
269.9999999562273842
  0
LINE
  5
2EF28
  8
0
 10
6812.4898528961075499
 20
322.7359326736980165
 30
0.0
 11
6812.4898528961075499
 21
324.2026283051533824
 31
0.0
  0
ARC
  5
2EF29
  8
0
 10
6812.4414767061471139
 20
322.736576078959672
 30
0.0
 40
0.0483804684307489
 50
315.2675688672724732
 51
359.2380087681896157
  0
ARC
  5
2EF2A
  8
0
 10
6812.3520043438038556
 20
322.645497387380999
 30
0.0
 40
0.0472440945830292
 50
270.0000000221990035
 51
314.999999944511103
  0
LINE
  5
2EF2B
  8
0
 10
6810.7729900429876579
 20
327.0313241588979736
 30
0.0
 11
6812.7099019207653328
 21
327.0313241588979736
 31
0.0
  0
LINE
  5
2EF2C
  8
0
 10
6810.7554317562216966
 20
327.0499916758652716
 30
0.0
 11
6810.7554317562216966
 21
327.536918144280321
 31
0.0
  0
ARC
  5
2EF2D
  8
0
 10
6810.7741770150660159
 20
327.0500318428761943
 30
0.0
 40
0.0187453018793577
 50
180.1227722005970122
 51
266.3695425911649863
  0
LINE
  5
2EF2E
  8
0
 10
6812.7239356932223018
 20
327.5368821695980159
 30
0.0
 11
6812.7237019207641424
 21
327.0451241588979769
 31
0.0
  0
ARC
  5
2EF2F
  8
0
 10
6812.7099019207653328
 20
327.0451241588979769
 30
0.0
 40
0.0138
 50
270.0
 51
0.0
  0
LINE
  5
2EF30
  8
0
 10
6810.7751317562224358
 20
326.8915603793980154
 30
0.0
 11
6812.7042506538218731
 21
326.8915603793980154
 31
0.0
  0
ARC
  5
2EF31
  8
0
 10
6811.7396837246542418
 20
324.1722737964050793
 30
0.0
 40
0.7507830458937449
 50
2.3171266552323662
 51
177.6828733447675859
  0
LINE
  5
2EF32
  8
0
 10
6811.1104962869967494
 20
328.9432039263986098
 30
0.0
 11
6811.1085910306192091
 21
327.7080170856531254
 31
0.0
  0
ARC
  5
2EF33
  8
0
 10
6811.1277770124870585
 20
328.9431772711499207
 30
0.0
 40
0.0172807460481168
 50
90.0
 51
179.9116222265176077
  0
ARC
  5
2EF34
  8
0
 10
6812.7042493645121795
 20
326.8718740506869267
 30
0.0
 40
0.0196863287532547
 50
0.0037524559335942
 51
89.9962475440826921
  0
ARC
  5
2EF35
  8
0
 10
6811.9257968278898261
 20
326.2952574388284006
 30
0.0
 40
0.9842519633454854
 50
37.7294511796258476
 51
48.4039440777579912
  0
LINE
  5
2EF36
  8
0
 10
6812.3515904369551208
 20
328.9604580171979933
 30
0.0
 11
6811.1277770124870585
 21
328.9604580171979933
 31
0.0
  0
LINE
  5
2EF37
  8
0
 10
6812.3688711624472489
 20
328.9432039263986098
 30
0.0
 11
6812.369604984621219
 21
327.721827904398026
 31
0.0
  0
LINE
  5
2EF38
  8
0
 10
6811.9543072823216789
 20
327.6069378987979803
 30
0.0
 11
6812.6783403938416086
 21
327.5840974842720925
 31
0.0
  0
ARC
  5
2EF39
  8
0
 10
6812.6766915987218454
 20
327.5368821695980159
 30
0.0
 40
0.0472440945000017
 50
359.9999999999951115
 51
88.0000000004134648
  0
ARC
  5
2EF3A
  8
0
 10
6812.5151909385012914
 20
327.7272214209626213
 30
0.0
 40
0.1456858263109987
 50
182.1216639864805984
 51
249.3873163984511905
  0
ARC
  5
2EF3B
  8
0
 10
6812.3515904369551208
 20
328.9431772711499207
 30
0.0
 40
0.0172807460481168
 50
0.0883777734823352
 51
90.0
  0
ARC
  5
2EF3C
  8
0
 10
6811.7773892558152511
 20
307.3719627940117789
 30
0.0
 40
21.1058490212269909
 50
89.0594023262610222
 51
90.1023587934166841
  0
ARC
  5
2EF3D
  8
0
 10
6739.2831955399396975
 20
328.0391656769425026
 30
0.0
 40
72.852310586703851
 50
359.655603111773928
 51
0.3348887008215329
  0
ARC
  5
2EF3E
  8
0
 10
6812.1241566367589257
 20
328.4648665550708984
 30
0.0
 40
0.0101056873538588
 50
0.6346138455667428
 51
91.6910355159816959
  0
LINE
  5
2EF3F
  8
0
 10
6811.9909922983279102
 20
328.4651724354005182
 30
0.0
 11
6811.9909923323721159
 21
327.6143373675785142
 31
0.0
  0
ARC
  5
2EF40
  8
0
 10
6811.9786306921878349
 20
328.4663059806787828
 30
0.0
 40
0.0124134697512918
 50
354.7606943645737942
 51
57.6305342904356266
  0
LINE
  5
2EF41
  8
0
 10
6814.2396837247206349
 20
289.1336863635979739
 30
0.0
 11
6809.2396837247224539
 21
289.1336863635979739
 31
0.0
  0
LINE
  5
2EF42
  8
0
 10
6814.2061070661020494
 20
289.8815247339817915
 30
0.0
 11
6809.2732603832846507
 21
289.8815247339817915
 31
0.0
  0
LINE
  5
2EF43
  8
0
 10
6815.4617682574416904
 20
316.8895711451979764
 30
0.0
 11
6812.9409030612732749
 21
316.8895711451979764
 31
0.0
  0
LINE
  5
2EF44
  8
0
 10
6812.7140931735220875
 20
319.8423477809980113
 30
0.0
 11
6810.7652742759210014
 21
319.8423477809980113
 31
0.0
  0
ARC
  5
2EF45
  8
0
 10
6812.7042356932215625
 20
319.8620477809980116
 30
0.0
 40
0.0197
 50
270.0
 51
0.0
  0
ARC
  5
2EF46
  8
0
 10
6812.7141355369140001
 20
319.8325477162533161
 30
0.0
 40
0.0098001563078423
 50
0.0003785245963343
 51
90.2476747381991942
  0
LINE
  5
2EF47
  8
0
 10
6812.7239356932223018
 20
311.9289320328979898
 30
0.0
 11
6812.7239356932223018
 21
290.1336863635979739
 31
0.0
  0
LINE
  5
2EF48
  8
0
 10
6810.7554317562216966
 20
311.9289320328979898
 30
0.0
 11
6810.7554317562216966
 21
290.1336863635979739
 31
0.0
  0
LINE
  5
2EF49
  8
0
 10
6809.6581985266675474
 20
290.1336863635979739
 30
0.0
 11
6813.8211689227764509
 21
290.1336863635979739
 31
0.0
  0
LINE
  5
2EF4A
  8
0
 10
6809.2396837247224539
 20
289.8170454776692964
 30
0.0
 11
6809.2396837247224539
 21
289.1336863635979739
 31
0.0
  0
LINE
  5
2EF4B
  8
0
 10
6809.2732603832846507
 20
289.8815247339817915
 30
0.0
 11
6809.6130580611261394
 21
290.1194536294826207
 31
0.0
  0
ARC
  5
2EF4C
  8
0
 10
6809.3183837369970206
 20
289.8170454746652922
 30
0.0
 40
0.0787000122763844
 50
124.9847868892416045
 51
179.9999978129899034
  0
ARC
  5
2EF4D
  8
0
 10
6809.6581985266675474
 20
290.0549863635978909
 30
0.0
 40
0.0787
 50
90.0
 51
125.0000000011992967
  0
LINE
  5
2EF4E
  8
0
 10
6814.2396837247206349
 20
289.8170454776692964
 30
0.0
 11
6814.2396837247206349
 21
289.1336863635979739
 31
0.0
  0
LINE
  5
2EF4F
  8
0
 10
6814.2061070661593476
 20
289.8815247339817915
 30
0.0
 11
6813.866309388317859
 21
290.1194536294826207
 31
0.0
  0
ARC
  5
2EF50
  8
0
 10
6814.1609837124451587
 20
289.8170454746652922
 30
0.0
 40
0.0787000122763844
 50
0.0000021870100585
 51
55.0152131107584026
  0
ARC
  5
2EF51
  8
0
 10
6813.8211689227764509
 20
290.0549863635978909
 30
0.0
 40
0.0787
 50
54.9999999988006394
 51
90.0
  0
LINE
  5
2EF52
  8
0
 10
6812.7141356932206691
 20
311.9683320328979903
 30
0.0
 11
6810.7652317562206008
 21
311.9683320328979903
 31
0.0
  0
ARC
  5
2EF53
  8
0
 10
6812.6845356932217328
 20
311.9289320328979898
 30
0.0
 40
0.0394
 50
0.0
 51
90.0
  0
ARC
  5
2EF54
  8
0
 10
6810.7948317562222655
 20
311.9289320328979898
 30
0.0
 40
0.0394
 50
90.0
 51
180.0
  0
LINE
  5
2EF55
  8
0
 10
6812.7239356932223018
 20
311.9781320328979746
 30
0.0
 11
6812.7239356932223018
 21
316.6723650915922121
 31
0.0
  0
ARC
  5
2EF56
  8
0
 10
6812.7141356932206691
 20
311.9781320328979746
 30
0.0
 40
0.0098
 50
270.0
 51
0.0
  0
ARC
  5
2EF57
  8
0
 10
6812.9440847080059029
 20
316.6694254955489782
 30
0.0
 40
0.2201686397634999
 50
90.8280074547615186
 51
179.2349889094128912
  0
LINE
  5
2EF58
  8
0
 10
6810.7554317562216966
 20
311.9781320328979746
 30
0.0
 11
6810.7554317562216966
 21
313.8265698287979717
 31
0.0
  0
ARC
  5
2EF59
  8
0
 10
6810.7652317562206008
 20
311.9781320328979746
 30
0.0
 40
0.0098
 50
180.0
 51
270.0
  0
LINE
  5
2EF5A
  8
0
 10
6810.7554317562216966
 20
313.9217033089262827
 30
0.0
 11
6810.7554317562216966
 21
314.1436577195610198
 31
0.0
  0
LINE
  5
2EF5B
  8
0
 10
6810.7554317562216966
 20
314.5254773004891149
 30
0.0
 11
6810.7554317562216966
 21
317.212426521097882
 31
0.0
  0
LINE
  5
2EF5C
  8
0
 10
6810.7554317562216966
 20
317.5982532926980753
 30
0.0
 11
6810.7554317562216966
 21
317.8305367572979776
 31
0.0
  0
ARC
  5
2EF5D
  8
0
 10
6810.7948018349215999
 20
317.8305367572979776
 30
0.0
 40
0.0393700787000047
 50
90.0
 51
179.9999999999039062
  0
LINE
  5
2EF5E
  8
0
 10
6810.7554317562216966
 20
317.9132438439979751
 30
0.0
 11
6810.7554317562216966
 21
319.8325477809980271
 31
0.0
  0
ARC
  5
2EF5F
  8
0
 10
6810.7948317562222655
 20
317.9132438439979751
 30
0.0
 40
0.0394
 50
180.0
 51
270.0
  0
LINE
  5
2EF60
  8
0
 10
6810.7554317562216966
 20
319.8620477809980116
 30
0.0
 11
6810.7554317562216966
 21
326.8718603793979014
 31
0.0
  0
ARC
  5
2EF61
  8
0
 10
6810.7751317562224358
 20
326.8718603793979014
 30
0.0
 40
0.0197
 50
90.0
 51
180.0
  0
ARC
  5
2EF62
  8
0
 10
6810.7751317562224358
 20
319.8620477809980116
 30
0.0
 40
0.0197
 50
180.0
 51
270.0
  0
LINE
  5
2EF63
  8
0
 10
6812.7239356932223018
 20
326.8718753399979846
 30
0.0
 11
6812.7239356932223018
 21
319.8620477809980116
 31
0.0
  0
LINE
  5
2EF64
  8
0
 10
6812.7239356932223018
 20
319.8325477809980271
 30
0.0
 11
6812.7239356932223018
 21
318.687100301229691
 31
0.0
  0
LINE
  5
2EF65
  8
0
 10
6812.946672572920761
 20
318.4644157552979777
 30
0.0
 11
6815.4617682574416904
 21
318.4644157552979777
 31
0.0
  0
LINE
  5
2EF66
  8
0
 10
6817.1339519101220503
 20
317.9919540801980133
 30
0.0
 11
6815.8308734717293191
 21
317.992027079289926
 31
0.0
  0
LINE
  5
2EF67
  8
0
 10
6815.6163835062206999
 20
318.3339782688979085
 30
0.0
 11
6815.6513400528629063
 21
318.1368946159789743
 31
0.0
  0
ARC
  5
2EF68
  8
0
 10
6815.8306731039383521
 20
318.1754598464314086
 30
0.0
 40
0.1834328765745939
 50
192.136513864980202
 51
270.0625854603525227
  0
ARC
  5
2EF69
  8
0
 10
6816.6609435660739109
 20
317.6769934502480055
 30
0.0
 40
0.7007418866481729
 50
344.2880792384636948
 51
15.7119207615378293
  0
LINE
  5
2EF6A
  8
0
 10
6817.3181700692475715
 20
317.8894614503203115
 30
0.0
 11
6817.1579100376684437
 21
317.9857105470794068
 31
0.0
  0
ARC
  5
2EF6B
  8
0
 10
6817.1340892606040143
 20
317.9433924525886255
 30
0.0
 40
0.048561821848332
 50
60.624920207548179
 51
90.1620535053613139
  0
ARC
  5
2EF6C
  8
0
 10
6817.3020459629406105
 20
317.8591851201293252
 30
0.0
 40
0.0343022298697318
 50
12.7488586240016595
 51
61.9618084107522478
  0
ARC
  5
2EF6D
  8
0
 10
6815.4613742256333353
 20
318.4299687365920022
 30
0.0
 40
0.0344492722535365
 50
42.7827052707662503
 51
89.3446348631393761
  0
ARC
  5
2EF6E
  8
0
 10
6815.5778125468141297
 20
318.3272210390576902
 30
0.0
 40
0.0391583843469832
 50
9.9367840453312617
 51
49.9767472750350805
  0
LINE
  5
2EF6F
  8
0
 10
6815.6029952429216792
 20
318.357207884197976
 30
0.0
 11
6815.4866577495231468
 21
318.4533673642980034
 31
0.0
  0
ARC
  5
2EF70
  8
0
 10
6812.9446884893886818
 20
318.6851680913285918
 30
0.0
 40
0.220761252149076
 50
179.4985130546455991
 51
270.5149506175861234
  0
LINE
  5
2EF71
  8
0
 10
6817.3181700692475715
 20
317.8894614503203115
 30
0.0
 11
6815.8275201842770912
 21
317.8894614503203115
 31
0.0
  0
LINE
  5
2EF72
  8
0
 10
6815.4866577495231468
 20
318.4533673642980034
 30
0.0
 11
6815.5437353473525945
 21
318.1263406398343818
 31
0.0
  0
ARC
  5
2EF73
  8
0
 10
6815.8291968558078224
 20
318.1798936432688834
 30
0.0
 40
0.2904370326393943
 50
190.5539302093272909
 51
270.3307661391363013
  0
LINE
  5
2EF74
  8
0
 10
6817.1339519101220503
 20
317.3620328202979977
 30
0.0
 11
6815.8308734717293191
 21
317.3619598212060282
 31
0.0
  0
LINE
  5
2EF75
  8
0
 10
6815.6163835062206999
 20
317.0200086315979888
 30
0.0
 11
6815.6513400528629063
 21
317.2170922845169798
 31
0.0
  0
ARC
  5
2EF76
  8
0
 10
6815.8306731039383521
 20
317.1785270540646025
 30
0.0
 40
0.1834328765745939
 50
89.9374145396474773
 51
167.8634861350213043
  0
LINE
  5
2EF77
  8
0
 10
6817.3181700692475715
 20
317.4645254501756995
 30
0.0
 11
6817.1579100376684437
 21
317.3682763534166043
 31
0.0
  0
ARC
  5
2EF78
  8
0
 10
6817.1340892606040143
 20
317.4105944479073855
 30
0.0
 40
0.048561821848332
 50
269.8379464946386861
 51
299.3750797924525955
  0
ARC
  5
2EF79
  8
0
 10
6817.3020459629406105
 20
317.4948017803666858
 30
0.0
 40
0.0343022298697318
 50
298.0381915892485267
 51
347.2511413759983157
  0
ARC
  5
2EF7A
  8
0
 10
6815.4613742256333353
 20
316.9240181639040088
 30
0.0
 40
0.0344492722535365
 50
270.6553651368606097
 51
317.2172947292337994
  0
ARC
  5
2EF7B
  8
0
 10
6815.5778125468141297
 20
317.0267658614382071
 30
0.0
 40
0.0391583843469832
 50
310.0232527249648911
 51
350.0632159546686921
  0
LINE
  5
2EF7C
  8
0
 10
6815.6029952429216792
 20
316.9967790162979782
 30
0.0
 11
6815.4866577495231468
 21
316.9006195361978939
 31
0.0
  0
LINE
  5
2EF7D
  8
0
 10
6817.3181700692475715
 20
317.4645254501756995
 30
0.0
 11
6815.8275201842770912
 21
317.4645254501756995
 31
0.0
  0
LINE
  5
2EF7E
  8
0
 10
6815.4866577495231468
 20
316.9006195361978939
 30
0.0
 11
6815.5437353473525945
 21
317.2276462606615723
 31
0.0
  0
ARC
  5
2EF7F
  8
0
 10
6815.8291968558078224
 20
317.1740932572271277
 30
0.0
 40
0.2904370326393943
 50
89.6692338608636845
 51
169.4460697906727091
  0
ARC
  5
2EF80
  8
0
 10
6813.4526662892722015
 20
317.6797326964108947
 30
0.0
 40
1.2433172454599211
 50
125.8820097030666005
 51
234.1179902969333
  0
LINE
  5
2EF81
  8
0
 10
6810.7948018349215999
 20
317.8699068359979947
 30
0.0
 11
6810.8329377558438864
 21
317.8699068359979947
 31
0.0
  0
LINE
  5
2EF82
  8
0
 10
6810.7948317562222655
 20
317.8738438439979745
 30
0.0
 11
6810.8302776547716348
 21
317.8738438439979745
 31
0.0
  0
ARC
  5
2EF83
  8
0
 10
6810.6925876342920674
 20
317.7779442532183225
 30
0.0
 40
0.1677953314353088
 50
11.8992962662355808
 51
34.8567887073845029
  0
ARC
  5
2EF84
  8
0
 10
6810.5665721744053371
 20
317.7513902471969232
 30
0.0
 40
0.2965781383869436
 50
0.8391215999025315
 51
11.8992962662355808
  0
LINE
  5
2EF85
  8
0
 10
6810.8631185070216816
 20
317.755733607698005
 30
0.0
 11
6810.8631185070216816
 21
313.9840800650979986
 31
0.0
  0
ARC
  5
2EF86
  8
0
 10
6810.7948317562222655
 20
313.9217033089262827
 30
0.0
 40
0.0394
 50
180.0
 51
267.999999910103611
  0
ARC
  5
2EF87
  8
0
 10
6810.7948317562222655
 20
313.8265698287979717
 30
0.0
 40
0.0394
 50
90.0
 51
180.0
  0
LINE
  5
2EF88
  8
0
 10
6810.7934567159900325
 20
313.8823273103438964
 30
0.0
 11
6810.8394556230523449
 21
313.8807209930412796
 31
0.0
  0
LINE
  5
2EF89
  8
0
 10
6810.7948317562222655
 20
313.8659698287979722
 30
0.0
 11
6810.8302776547716348
 21
313.8659698287979722
 31
0.0
  0
ARC
  5
2EF8A
  8
0
 10
6810.6925876342920674
 20
313.9618694195776811
 30
0.0
 40
0.1677953314353088
 50
325.14321129261549
 51
348.1007037337644192
  0
ARC
  5
2EF8B
  8
0
 10
6810.5665721744053371
 20
313.9884234255990236
 30
0.0
 40
0.2965781383869436
 50
348.1007037337644192
 51
359.1608784000973742
  0
ARC
  5
2EF8C
  8
0
 10
6810.7652319125299982
 20
319.8325477162533161
 30
0.0
 40
0.0098001563078297
 50
89.7523252616965692
 51
179.9996214754345942
  0
LINE
  5
2EF8D
  8
0
 10
6812.7042506538628004
 20
326.8975543491980034
 30
0.0
 11
6812.7042506538628004
 21
326.8915603793979017
 31
0.0
  0
LINE
  5
2EF8E
  8
0
 10
6812.7042506538628004
 20
326.8975543491980034
 30
0.0
 11
6810.7751167956221252
 21
326.8975543491980034
 31
0.0
  0
ARC
  5
2EF8F
  8
0
 10
6811.4761412521193051
 20
326.3733366884795828
 30
0.0
 40
0.8753510406773212
 50
131.2635277209882076
 51
143.2113018136039102
  0
LINE
  5
2EF90
  8
0
 10
6810.7751167956221252
 20
326.8975543492505267
 30
0.0
 11
6810.7751167956221252
 21
326.8915603793979017
 31
0.0
  0
ARC
  5
2EF91
  8
0
 10
6811.7266033032428822
 20
319.9705636406438884
 30
0.0
 40
7.6397683808271299
 50
88.2920412338719416
 51
89.9011305138298695
  0
ARC
  5
2EF92
  8
0
 10
6811.9816212260966495
 20
327.6152894286191213
 30
0.0
 40
0.0094193446183073
 50
280.3360177680410175
 51
354.198918103120775
  0
ARC
  5
2EF93
  8
0
 10
6811.7021342953757994
 20
307.3759601555908034
 30
0.0
 40
21.1018513876591207
 50
89.8980456915583375
 51
90.9406417828446507
  0
ARC
  5
2EF94
  8
0
 10
6811.3554162956861546
 20
328.4648665550708984
 30
0.0
 40
0.0101056873538588
 50
88.3089644840183041
 51
179.3653861544333097
  0
LINE
  5
2EF95
  8
0
 10
6811.4885806341153511
 20
328.4651724354005182
 30
0.0
 11
6811.4885806000711455
 21
327.6143373675785142
 31
0.0
  0
ARC
  5
2EF96
  8
0
 10
6811.5009422402554264
 20
328.4663059806787828
 30
0.0
 40
0.0124134697512918
 50
122.3694657095642953
 51
185.2393056354260921
  0
ARC
  5
2EF97
  8
0
 10
6811.4979517063457024
 20
327.6152894286191213
 30
0.0
 40
0.0094193446183073
 50
185.8010818968791966
 51
259.6639822319589825
  0
ARC
  5
2EF98
  8
0
 10
6811.7388634413828186
 20
305.7669770901406991
 30
0.0
 40
22.9391010974584617
 50
88.4589520074409563
 51
91.5369288404585575
  0
ARC
  5
2EF99
  8
0
 10
6812.3293054658015535
 20
328.7283116635841793
 30
0.0
 40
0.0404020827412278
 50
310.9169829815962203
 51
349.2977978583458025
  0
ARC
  5
2EF9A
  8
0
 10
6810.9641765109417975
 20
327.7272214209625076
 30
0.0
 40
0.1456858263109851
 50
290.6126836015487811
 51
352.4252123896538933
  0
ARC
  5
2EF9B
  8
0
 10
6884.1961719095043009
 20
328.0391656769425026
 30
0.0
 40
72.852310586703851
 50
179.6651112991785055
 51
180.3443968882261004
  0
ARC
  5
2EF9C
  8
0
 10
6811.3552108126850726
 20
328.4648665550708984
 30
0.0
 40
0.0101056873538588
 50
88.3089644840183041
 51
179.3653861544333097
  0
ARC
  5
2EF9D
  8
0
 10
6811.1512151182314483
 20
328.7294173028560067
 30
0.0
 40
0.0419544720788083
 50
191.8399545818649017
 51
228.8505924436975079
  0
LINE
  5
2EF9E
  8
0
 10
6811.5252656501206729
 20
327.6069378987979803
 30
0.0
 11
6810.8011435210501077
 21
327.5840946761161945
 31
0.0
  0
ARC
  5
2EF9F
  8
0
 10
6810.8026317562216718
 20
327.536918144280321
 30
0.0
 40
0.0472
 50
91.8068586728663547
 51
180.0
  0
ARC
  5
2EFA0
  8
0
 10
6811.7529696292012886
 20
319.9705636406438884
 30
0.0
 40
7.6397683808271299
 50
90.0988694861701447
 51
91.7079587661280726
  0
LINE
  5
2EFA1
  8
0
 10
6810.8011435210501077
 20
327.5840946761161945
 30
0.0
 11
6812.6783403938434276
 21
327.5840974842720925
 31
0.0
  0
ARC
  5
2EFA3
  8
0
 10
6809.802309936842903
 20
317.405339906898007
 30
0.0
 40
0.9724488557227319
 50
348.5578193986066253
 51
11.4421806013933196
  0
CIRCLE
  5
2EFA4
  8
0
 10
6811.7396837247206349
 20
327.9659872478979992
 30
0.0
 40
0.0708661417000016
  0
CIRCLE
  5
2EFA5
  8
0
 10
6811.7396837247206349
 20
327.9659872478979992
 30
0.0
 40
0.1803979116999983
  0
ARC
  5
2EFA6
  8
0
 10
6809.8222157296559089
 20
314.3345675100251242
 30
0.0
 40
0.9525432800325203
 50
348.4384139772071194
 51
11.5615860227929499
  0
ENDSEC
  0
EOF
