  0
SECTION
  2
HEADER
  9
$ACADVER
  1
AC1009
  9
$INSBASE
 10
6553.484460393315203
 20
287.7207635858143817
 30
0.0
  9
$EXTMIN
 10
6548.6248542481780532
 20
284.5711572866143797
 30
0.0
  9
$EXTMAX
 10
6553.495943506464755
 20
290.3782439008144252
 30
0.0
  9
$LIMMIN
 10
0.0
 20
0.0
  9
$LIMMAX
 10
11.6929133858000007
 20
8.2677165353999982
  9
$ORTHOMODE
 70
     0
  9
$REGENMODE
 70
     1
  9
$FILLMODE
 70
     1
  9
$QTEXTMODE
 70
     0
  9
$MIRRTEXT
 70
     0
  9
$DRAGMODE
 70
     2
  9
$LTSCALE
 40
0.6431102362
  9
$OSMODE
 70
  4095
  9
$ATTMODE
 70
     1
  9
$TEXTSIZE
 40
0.2
  9
$TRACEWID
 40
0.05
  9
$TEXTSTYLE
  7
STANDARD
  9
$CLAYER
  8
0
  9
$CELTYPE
  6
BYLAYER
  9
$CECOLOR
 62
   256
  9
$DIMSCALE
 40
1.0
  9
$DIMASZ
 40
0.1875
  9
$DIMEXO
 40
0.0625
  9
$DIMDLI
 40
0.4443307087
  9
$DIMRND
 40
0.0
  9
$DIMDLE
 40
0.0
  9
$DIMEXE
 40
0.125
  9
$DIMTP
 40
0.01
  9
$DIMTM
 40
0.01
  9
$DIMTXT
 40
2.0
  9
$DIMCEN
 40
0.1052362205
  9
$DIMTSZ
 40
0.0
  9
$DIMTOL
 70
     1
  9
$DIMLIM
 70
     0
  9
$DIMTIH
 70
     1
  9
$DIMTOH
 70
     1
  9
$DIMSE1
 70
     0
  9
$DIMSE2
 70
     0
  9
$DIMTAD
 70
     0
  9
$DIMZIN
 70
     0
  9
$DIMBLK
  1

  9
$DIMASO
 70
     1
  9
$DIMSHO
 70
     1
  9
$DIMPOST
  1
\X
  9
$DIMAPOST
  1

  9
$DIMALT
 70
     1
  9
$DIMALTD
 70
     2
  9
$DIMALTF
 40
25.3999999999999986
  9
$DIMLFAC
 40
1.0
  9
$DIMTOFL
 70
     0
  9
$DIMTVP
 40
0.0
  9
$DIMTIX
 70
     0
  9
$DIMSOXD
 70
     0
  9
$DIMSAH
 70
     0
  9
$DIMBLK1
  1

  9
$DIMBLK2
  1

  9
$DIMSTYLE
  2
STANDARD
  9
$DIMCLRD
 70
     0
  9
$DIMCLRE
 70
     0
  9
$DIMCLRT
 70
     0
  9
$DIMTFAC
 40
1.0
  9
$DIMGAP
 40
0.09
  9
$LUNITS
 70
     2
  9
$LUPREC
 70
     4
  9
$SKETCHINC
 40
0.1
  9
$FILLETRAD
 40
0.0
  9
$AUNITS
 70
     0
  9
$AUPREC
 70
     0
  9
$MENU
  1
.
  9
$ELEVATION
 40
0.0
  9
$PELEVATION
 40
0.0
  9
$THICKNESS
 40
0.0
  9
$LIMCHECK
 70
     0
  9
$BLIPMODE
 70
     0
  9
$CHAMFERA
 40
0.0
  9
$CHAMFERB
 40
0.0
  9
$SKPOLY
 70
     0
  9
$TDCREATE
 40
2458060.468368056230247
  9
$TDUPDATE
 40
2460734.4882986121810973
  9
$TDINDWG
 40
0.8042315972
  9
$TDUSRTIMER
 40
0.8042315972
  9
$USRTIMER
 70
     1
  9
$ANGBASE
 50
0.0
  9
$ANGDIR
 70
     0
  9
$PDMODE
 70
     0
  9
$PDSIZE
 40
0.3125
  9
$PLINEWID
 40
0.0
  9
$COORDS
 70
     2
  9
$SPLFRAME
 70
     0
  9
$SPLINETYPE
 70
     6
  9
$SPLINESEGS
 70
     8
  9
$ATTDIA
 70
     1
  9
$ATTREQ
 70
     1
  9
$HANDLING
 70
     1
  9
$HANDSEED
  5
2E8A9
  9
$SURFTAB1
 70
     6
  9
$SURFTAB2
 70
     6
  9
$SURFTYPE
 70
     6
  9
$SURFU
 70
     6
  9
$SURFV
 70
     6
  9
$UCSNAME
  2

  9
$UCSORG
 10
0.0
 20
0.0
 30
0.0
  9
$UCSXDIR
 10
1.0
 20
0.0
 30
0.0
  9
$UCSYDIR
 10
0.0
 20
1.0
 30
0.0
  9
$PUCSNAME
  2

  9
$PUCSORG
 10
0.0
 20
0.0
 30
0.0
  9
$PUCSXDIR
 10
1.0
 20
0.0
 30
0.0
  9
$PUCSYDIR
 10
0.0
 20
1.0
 30
0.0
  9
$USERI1
 70
     0
  9
$USERI2
 70
     0
  9
$USERI3
 70
     0
  9
$USERI4
 70
     0
  9
$USERI5
 70
     0
  9
$USERR1
 40
0.0
  9
$USERR2
 40
0.0
  9
$USERR3
 40
0.0
  9
$USERR4
 40
0.0
  9
$USERR5
 40
0.0
  9
$WORLDVIEW
 70
     1
  9
$SHADEDGE
 70
     3
  9
$SHADEDIF
 70
    70
  9
$TILEMODE
 70
     1
  9
$MAXACTVP
 70
    64
  9
$PLIMCHECK
 70
     0
  9
$PEXTMIN
 10
1.0000000000000000E+20
 20
1.0000000000000000E+20
 30
1.0000000000000000E+20
  9
$PEXTMAX
 10
-1.0000000000000000E+20
 20
-1.0000000000000000E+20
 30
-1.0000000000000000E+20
  9
$PLIMMIN
 10
0.0
 20
0.0
  9
$PLIMMAX
 10
12.0
 20
9.0
  9
$UNITMODE
 70
     0
  9
$VISRETAIN
 70
     1
  9
$PLINEGEN
 70
     0
  9
$PSLTSCALE
 70
     1
  0
ENDSEC
  0
SECTION
  2
TABLES
  0
TABLE
  2
VPORT
 70
     1
  0
VPORT
  2
*ACTIVE
 70
     0
 10
0.0
 20
0.0
 11
1.0
 21
1.0
 12
2639.6950424320089041
 22
154.8950954911753115
 13
0.0
 23
0.0
 14
1.0
 24
1.0
 15
0.0
 25
0.0
 16
0.0
 26
0.0
 36
60.4960186965801583
 17
3911.3653564453120453
 27
132.5796051025390057
 37
0.0
 40
5.852219411719715
 41
2.4370946822308679
 42
50.0
 43
0.0
 44
0.0
 50
0.0
 51
0.0
 71
     0
 72
   100
 73
     1
 74
     1
 75
     0
 76
     0
 77
     0
 78
     0
  0
ENDTAB
  0
TABLE
  2
LTYPE
 70
     2
  0
LTYPE
  2
CONTINUOUS
 70
     0
  3
Solid line
 72
    65
 73
     0
 40
0.0
  0
LTYPE
  2
PHANTOM2
 70
     0
  3
___ _ _ ___ _ _ ___ _ _ ___ _ _
 72
    65
 73
     6
 40
1.25
 49
0.625
 49
-0.125
 49
0.125
 49
-0.125
 49
0.125
 49
-0.125
  0
ENDTAB
  0
TABLE
  2
LAYER
 70
     2
  0
LAYER
  2
0
 70
     0
 62
   255
  6
CONTINUOUS
  0
LAYER
  2
DEFPOINTS
 70
     0
 62
     7
  6
CONTINUOUS
  0
ENDTAB
  0
TABLE
  2
STYLE
 70
     1
  0
STYLE
  2
STANDARD
 70
     0
 40
0.0
 41
0.8
 50
0.0
 71
     0
 42
0.2
  3
txt
  4

  0
ENDTAB
  0
TABLE
  2
VIEW
 70
     0
  0
ENDTAB
  0
TABLE
  2
UCS
 70
     0
  0
ENDTAB
  0
TABLE
  2
APPID
 70
    11
  0
APPID
  2
ACAD
 70
     0
  0
APPID
  2
ACAD_MLEADERVER
 70
     0
  0
APPID
  2
ACAD_EXEMPT_FROM_CAD_STANDARDS
 70
     0
  0
APPID
  2
ACAD_NAV_VCDISPLAY
 70
     0
  0
APPID
  2
ACAECLAYERSTANDARD
 70
     0
  0
APPID
  2
ACCMTRANSPARENCY
 70
     0
  0
APPID
  2
ACAD_DSTYLE_DIMJAG
 70
     0
  0
APPID
  2
ACAD_DSTYLE_DIMTALN
 70
     0
  0
APPID
  2
ACDBATTR
 70
     0
  0
APPID
  2
ACADANNOTATIVE
 70
     0
  0
APPID
  2
DCO15
 70
     0
  0
ENDTAB
  0
TABLE
  2
DIMSTYLE
 70
     1
  0
DIMSTYLE
  2
STANDARD
 70
     0
  3

  4

  5

  6

  7

 40
1.0
 41
0.1875
 42
0.0625
 43
0.38
 44
0.125
 45
0.0
 46
0.0
 47
0.01
 48
0.01
140
0.15625
141
0.09
142
0.0
143
25.3999999999999986
144
1.0
145
0.0
146
1.0
147
0.09
 71
     1
 72
     0
 73
     1
 74
     1
 75
     0
 76
     0
 77
     0
 78
     4
170
     0
171
     2
172
     0
173
     0
174
     0
175
     0
176
     0
177
     0
178
     0
  0
ENDTAB
  0
ENDSEC
  0
SECTION
  2
BLOCKS
  0
BLOCK
  8
0
  2
$MODEL_SPACE
 70
     0
 10
0.0
 20
0.0
 30
0.0
  3
$MODEL_SPACE
  1

  0
ENDBLK
  5
21
  8
0
  0
BLOCK
 67
     1
  8
0
  2
$PAPER_SPACE
 70
     0
 10
0.0
 20
0.0
 30
0.0
  3
$PAPER_SPACE
  1

  0
ENDBLK
  5
1D
 67
     1
  8
0
  0
BLOCK
  8
0
  2
_FILLED
 70
     0
 10
0.0
 20
0.0
 30
0.0
  3
_FILLED
  1

  0
SOLID
  5
26C2A
  8
0
  6
BYBLOCK
 62
     0
 10
0.0
 20
0.0
 30
0.0
 11
-1.0
 21
0.1666666667
 31
0.0
 12
-1.0
 22
-0.1666666667
 32
0.0
 13
-1.0
 23
-0.1666666667
 33
0.0
  0
ENDBLK
  5
26C2B
  8
0
  6
BYBLOCK
 62
     0
  0
ENDSEC
  0
SECTION
  2
ENTITIES
  0
ATTDEF
  5
26A5B
  8
DEFPOINTS
 10
6553.4852768397950058
 20
287.7243146254745056
 30
0.0
 40
0.001
  1
P34589-BAF
  3

  2
MODELNUMBER
 70
     0
1001
ACDBATTR
1070
     0
1070
     1
  0
ATTDEF
  5
26A5C
  8
DEFPOINTS
 10
6553.4851510301386952
 20
287.7226477850953756
 30
0.0
 40
0.001
  1
VICE
  3

  2
TRADENAME
 70
     0
1001
ACDBATTR
1070
     0
1070
     1
  0
ATTDEF
  5
26A5D
  8
DEFPOINTS
 10
6553.4852768397950058
 20
287.7209812921411753
 30
0.0
 40
0.001
  1
VALVE TRIM
  3

  2
PRODUCT
 70
     0
1001
ACDBATTR
1070
     0
1070
     1
  0
LINE
  5
2E6FD
  8
0
 10
6549.2348541752153324
 20
287.7207635858143817
 30
0.0
 11
6550.6896573248159257
 21
287.7207635858143817
 31
0.0
  0
LINE
  5
2E6FE
  8
0
 10
6553.484460393315203
 20
290.3782439008144252
 30
0.0
 11
6553.484460393315203
 21
285.0632832708143951
 31
0.0
  0
LINE
  5
2E6FF
  8
0
 10
6552.9334603933148173
 20
290.3782439008144252
 30
0.0
 11
6553.484460393315203
 21
290.3782439008144252
 31
0.0
  0
LINE
  5
2E700
  8
0
 10
6552.8744603933164399
 20
290.3192439008143992
 30
0.0
 11
6552.8744603933164399
 21
285.122283270814421
 31
0.0
  0
LINE
  5
2E701
  8
0
 10
6553.0960362048826937
 20
290.3635992398823191
 30
0.0
 11
6552.8891050542642915
 21
290.1566680893636203
 31
0.0
  0
ARC
  5
2E702
  8
0
 10
6553.1313915439341145
 20
290.3282439008144138
 30
0.0
 40
0.05
 50
90.0
 51
134.9999999861545064
  0
ARC
  5
2E703
  8
0
 10
6552.9334603933148173
 20
290.3192439008143992
 30
0.0
 40
0.059
 50
90.0
 51
180.0
  0
ARC
  5
2E704
  8
0
 10
6552.9244603933148028
 20
290.121312750295715
 30
0.0
 40
0.05
 50
134.999999986149902
 51
180.0000000000032117
  0
LINE
  5
2E705
  8
0
 10
6551.3802085248162257
 20
288.7637557118143832
 30
0.0
 11
6551.3802085248162257
 21
286.6777714598143803
 31
0.0
  0
LINE
  5
2E706
  8
0
 10
6551.3502085059153615
 20
288.7737557118143741
 30
0.0
 11
6551.3502085059153615
 21
286.6677714598143893
 31
0.0
  0
LINE
  5
2E707
  8
0
 10
6551.3402085059160527
 20
288.7837557118144218
 30
0.0
 11
6550.8470823687302982
 21
288.7837557118144218
 31
0.0
  0
ARC
  5
2E708
  8
0
 10
6550.8470823687302982
 20
288.7443557118144213
 30
0.0
 40
0.0394
 50
90.0
 51
163.3007557629659914
  0
LINE
  5
2E709
  8
0
 10
6551.4002085248148433
 20
288.7837557118144218
 30
0.0
 11
6552.8744603933164399
 21
288.7837557118144218
 31
0.0
  0
LINE
  5
2E70A
  8
0
 10
6550.699657324816144
 20
288.3696540560682138
 30
0.0
 11
6550.699657324816144
 21
287.0718731155607202
 31
0.0
  0
ARC
  5
2E70B
  8
0
 10
6550.6896573248159257
 20
287.7107635858143908
 30
0.0
 40
0.01
 50
0.0
 51
90.0
  0
ARC
  5
2E70C
  8
0
 10
6550.6896573248159257
 20
287.3834328771143873
 30
0.0
 40
0.01
 50
270.0
 51
0.0
  0
LINE
  5
2E70D
  8
0
 10
6551.3502085059153615
 20
288.440763567015324
 30
0.0
 11
6551.3626349314417894
 21
288.4531899923985065
 31
0.0
  0
ARC
  5
2E70E
  8
0
 10
6551.320208524814916
 20
288.4956163995144038
 30
0.0
 40
0.06
 50
314.9999996696392941
 51
0.0
  0
ARC
  5
2E70F
  8
0
 10
6551.4002085248148433
 20
288.7637557118143832
 30
0.0
 40
0.02
 50
90.0
 51
180.0000000000065086
  0
ARC
  5
2E710
  8
0
 10
6551.3402085059160527
 20
288.7737557118143741
 30
0.0
 40
0.01
 50
0.0
 51
90.0
  0
LINE
  5
2E711
  8
0
 10
6550.705519471171101
 20
288.4095954121688123
 30
0.0
 11
6550.8093440130933232
 21
288.7556772185076852
 31
0.0
  0
ARC
  5
2E712
  8
0
 10
6550.8386573248162676
 20
288.3696540560682138
 30
0.0
 40
0.139
 50
163.3007557629597954
 51
180.0000000000065086
  0
LINE
  5
2E713
  8
0
 10
6550.8093440130933232
 20
288.7556772185076852
 30
0.0
 11
6550.8093440130933232
 21
286.6858499531210782
 31
0.0
  0
LINE
  5
2E714
  8
0
 10
6552.9334603933148173
 20
285.0632832708143951
 30
0.0
 11
6553.484460393315203
 21
285.0632832708143951
 31
0.0
  0
LINE
  5
2E715
  8
0
 10
6553.0960362048826937
 20
285.0779279317465011
 30
0.0
 11
6552.8891050542642915
 21
285.2848590822652
 31
0.0
  0
ARC
  5
2E716
  8
0
 10
6553.1313915439341145
 20
285.1132832708144065
 30
0.0
 40
0.05
 50
225.0000000138454936
 51
270.0
  0
ARC
  5
2E717
  8
0
 10
6552.9334603933148173
 20
285.122283270814421
 30
0.0
 40
0.059
 50
180.0
 51
270.0
  0
ARC
  5
2E718
  8
0
 10
6552.9244603933148028
 20
285.3202144213329916
 30
0.0
 40
0.05
 50
179.9999999999967031
 51
225.0000000138500127
  0
LINE
  5
2E719
  8
0
 10
6551.3402085059160527
 20
286.6577714598143984
 30
0.0
 11
6550.8470823687302982
 21
286.6577714598143984
 31
0.0
  0
ARC
  5
2E71A
  8
0
 10
6550.8470823687302982
 20
286.697171459814399
 30
0.0
 40
0.0394
 50
196.6992442370338949
 51
270.0
  0
LINE
  5
2E71B
  8
0
 10
6551.4002085248148433
 20
286.6577714598143984
 30
0.0
 11
6552.8744603933164399
 21
286.6577714598143984
 31
0.0
  0
LINE
  5
2E71C
  8
0
 10
6551.3502085059153615
 20
287.0007636046134962
 30
0.0
 11
6551.3626349314417894
 21
286.9883371792302
 31
0.0
  0
ARC
  5
2E71D
  8
0
 10
6551.320208524814916
 20
286.9459107721144164
 30
0.0
 40
0.06
 50
0.0
 51
45.0000003303606917
  0
ARC
  5
2E71E
  8
0
 10
6551.4002085248148433
 20
286.6777714598143803
 30
0.0
 40
0.02
 50
179.9999999999934914
 51
270.0
  0
ARC
  5
2E71F
  8
0
 10
6551.3402085059160527
 20
286.6677714598143893
 30
0.0
 40
0.01
 50
270.0
 51
0.0
  0
LINE
  5
2E720
  8
0
 10
6550.705519471171101
 20
287.0319317594598942
 30
0.0
 11
6550.8093440130933232
 21
286.6858499531210782
 31
0.0
  0
ARC
  5
2E721
  8
0
 10
6550.8386573248162676
 20
287.0718731155607202
 30
0.0
 40
0.139
 50
179.9999999999934914
 51
196.6992442370400909
  0
LINE
  5
2E722
  8
0
 10
6550.699657324816144
 20
288.2207635858143817
 30
0.0
 11
6549.7038000362381354
 21
288.2207635858143817
 31
0.0
  0
LINE
  5
2E723
  8
0
 10
6549.1249644114150215
 20
288.2126533496144134
 30
0.0
 11
6549.2832085129593906
 21
288.2126533496144134
 31
0.0
  0
LINE
  5
2E724
  8
0
 10
6549.5129276313937225
 20
288.2126533496144134
 30
0.0
 11
6549.6549179670482772
 21
288.2126533496144134
 31
0.0
  0
LINE
  5
2E725
  8
0
 10
6548.6923798472143972
 20
287.7207238976139934
 30
0.0
 11
6548.6923798472143972
 21
287.3282222795722873
 31
0.0
  0
LINE
  5
2E726
  8
0
 10
6548.6329644114148323
 20
287.7206533496143948
 30
0.0
 11
6548.6329644114148323
 21
287.5619195986823797
 31
0.0
  0
LINE
  5
2E727
  8
0
 10
6548.6329644114148323
 20
287.3323363866489899
 30
0.0
 11
6548.6329644114148323
 21
287.1932489809249773
 31
0.0
  0
ARC
  5
2E728
  8
0
 10
6549.1249644114150215
 20
287.7206533496143948
 30
0.0
 40
0.492
 50
90.0
 51
180.0
  0
ARC
  5
2E729
  8
0
 10
6549.5126507122304247
 20
288.4915174796436759
 30
0.0
 40
0.3384764562654566
 50
271.8835155723488128
 51
286.2931051558880995
  0
ARC
  5
2E72A
  8
0
 10
6549.5206698794554541
 20
288.4622398714377027
 30
0.0
 40
0.3081253106238184
 50
286.3891962142924967
 51
297.7934810008471231
  0
ARC
  5
2E72B
  8
0
 10
6549.6321040996681404
 20
288.2508277647910973
 30
0.0
 40
0.0691427500229878
 50
297.7934810008471231
 51
316.1079224705164847
  0
ARC
  5
2E72C
  8
0
 10
6543.4932011108521692
 20
291.7832823635191062
 30
0.0
 40
7.1497963572629581
 50
329.9491561735289906
 51
330.0219535512562743
  0
ARC
  5
2E72D
  8
0
 10
6549.7038000362381354
 20
288.2007635858143999
 30
0.0
 40
0.02
 50
90.0
 51
150.021953551259088
  0
ARC
  5
2E72E
  8
0
 10
6549.6505193565690206
 20
288.1922658310047041
 30
0.0
 40
0.0208566221905768
 50
4.4318520398324761
 51
77.8250439767009112
  0
LINE
  5
2E72F
  8
0
 10
6549.6723291957396214
 20
287.3734328771143964
 30
0.0
 11
6550.6896573248159257
 21
287.3734328771143964
 31
0.0
  0
LINE
  5
2E730
  8
0
 10
6549.5994971972768326
 20
287.3432648755766081
 30
0.0
 11
6549.5023528853516837
 21
287.2461205636521981
 31
0.0
  0
ARC
  5
2E731
  8
0
 10
6549.6723291957396214
 20
287.2704328771143878
 30
0.0
 40
0.103
 50
90.0
 51
135.0000000000023022
  0
LINE
  5
2E732
  8
0
 10
6549.4721848838153164
 20
287.1732885651899778
 30
0.0
 11
6549.4721848838153164
 21
286.0146219124969775
 31
0.0
  0
ARC
  5
2E733
  8
0
 10
6549.4671848838152073
 20
286.0146219124969775
 30
0.0
 40
0.005
 50
224.9997161544524999
 51
0.0
  0
ARC
  5
2E734
  8
0
 10
6549.5751848838153819
 20
287.1732885651899778
 30
0.0
 40
0.103
 50
135.0000000000069065
 51
179.9999999999967031
  0
LINE
  5
2E735
  8
0
 10
6550.6895323661910879
 20
287.4649487682120821
 30
0.0
 11
6549.6216105570611035
 21
287.4782944142590964
 31
0.0
  0
LINE
  5
2E736
  8
0
 10
6549.5604443323491068
 20
287.4534051271485851
 30
0.0
 11
6549.3922126338820817
 21
287.2851734286803094
 31
0.0
  0
LINE
  5
2E737
  8
0
 10
6549.3673233467698083
 20
287.2240072039693928
 30
0.0
 11
6549.3692011610319241
 21
286.1176151346485881
 31
0.0
  0
ARC
  5
2E738
  8
0
 10
6550.6896573248159257
 20
287.4749479874486724
 30
0.0
 40
0.01
 50
269.2840211846952911
 51
0.0000000000097707
  0
ARC
  5
2E739
  8
0
 10
6549.6205484087513469
 20
287.393301050747823
 30
0.0
 40
0.085
 50
89.2840211846952911
 51
135.0000000000069065
  0
ARC
  5
2E73A
  8
0
 10
6549.4523167102806838
 20
287.2250693522793767
 30
0.0
 40
0.085
 50
135.0000000000046043
 51
180.7159788147185111
  0
LINE
  5
2E73B
  8
0
 10
6549.1248541752138408
 20
287.6107635858144249
 30
0.0
 11
6549.1248541752138408
 21
286.3844807142891113
 31
0.0
  0
ARC
  5
2E73C
  8
0
 10
6549.2348541752153324
 20
287.6107635858144249
 30
0.0
 40
0.11
 50
90.0
 51
180.0
  0
ARC
  5
2E73D
  8
0
 10
6550.6896573248159257
 20
287.7307635858143726
 30
0.0
 40
0.01
 50
270.0
 51
359.9999999999869829
  0
LINE
  5
2E73E
  8
0
 10
6550.6896573248159257
 20
287.8226658270144185
 30
0.0
 11
6549.1149519340151528
 21
287.8226658270144185
 31
0.0
  0
ARC
  5
2E73F
  8
0
 10
6550.6896573248159257
 20
287.8326658270144094
 30
0.0
 40
0.01
 50
270.0
 51
0.0
  0
LINE
  5
2E740
  8
0
 10
6549.0229519340164188
 20
287.7306658270143771
 30
0.0
 11
6549.0229519340164188
 21
286.5240763896650833
 31
0.0
  0
ARC
  5
2E741
  8
0
 10
6549.1149519340151528
 20
287.7306658270143771
 30
0.0
 40
0.092
 50
90.0
 51
180.0
  0
LINE
  5
2E742
  8
0
 10
6548.6248542481789627
 20
287.1418007353781263
 30
0.0
 11
6548.6248542481789627
 21
284.7054217787832044
 31
0.0
  0
ARC
  5
2E743
  8
0
 10
6548.5552760085529371
 20
287.2414899106361759
 30
0.0
 40
0.1173139085115077
 50
318.7698799552288165
 51
337.3395189679173996
  0
ARC
  5
2E744
  8
0
 10
6548.363455685424924
 20
287.3312194384831741
 30
0.0
 40
0.3290169432445554
 50
335.7894241158991804
 51
344.3213696778078088
  0
ARC
  5
2E745
  8
0
 10
6548.3600376855420109
 20
287.3313132616682992
 30
0.0
 40
0.3323341680138208
 50
344.4650432675343268
 51
352.9376295783673072
  0
ARC
  5
2E746
  8
0
 10
6548.2958683143888265
 20
287.3358075504576732
 30
0.0
 40
0.396584079355398
 50
353.4330945939851745
 51
358.9040646530032745
  0
ARC
  5
2E747
  8
0
 10
6547.9111245970661912
 20
288.4089802115170755
 30
0.0
 40
1.4442755975811561
 50
300.0719497896803887
 51
300.4702725251693209
  0
ARC
  5
2E748
  8
0
 10
6548.6448542481775803
 20
287.1418007353781263
 30
0.0
 40
0.02
 50
120.0719497896804029
 51
180.0000000000065086
  0
ARC
  5
2E749
  8
0
 10
6548.6529984927292389
 20
287.1943567545906717
 30
0.0
 40
0.0200646848121733
 50
183.1649161408107886
 51
265.6530053910059905
  0
LINE
  5
2E74A
  8
0
 10
6549.0790702747399337
 20
286.3885947303896842
 30
0.0
 11
6549.6107951085123204
 21
285.8568698966175248
 31
0.0
  0
ARC
  5
2E74B
  8
0
 10
6549.2254541752163277
 20
286.3844807142891113
 30
0.0
 40
0.1006
 50
180.0
 51
224.9999999999953957
  0
ARC
  5
2E74C
  8
0
 10
6549.214551934013798
 20
286.5240763896650833
 30
0.0
 40
0.1916
 50
180.0
 51
224.9999999999953957
  0
LINE
  5
2E74D
  8
0
 10
6549.4636493323941977
 20
286.0110863961062933
 30
0.0
 11
6549.1550218159400174
 21
286.3197169704798739
 31
0.0
  0
ARC
  5
2E74E
  8
0
 10
6549.3642011682341035
 20
286.1176066484546254
 30
0.0
 40
0.005
 50
224.9997161544524999
 51
0.0972446671916972
  0
ARC
  5
2E74F
  8
0
 10
6549.2278541752139063
 20
286.3925486081286067
 30
0.0
 40
0.103
 50
180.0
 51
224.9997161544524999
  0
LINE
  5
2E750
  8
0
 10
6549.6248539830148729
 20
285.8229287711204734
 30
0.0
 11
6549.6248539830148729
 21
284.7054141549468795
 31
0.0
  0
ARC
  5
2E751
  8
0
 10
6549.5768539830150985
 20
285.8229287711204734
 30
0.0
 40
0.048
 50
0.0000000000032569
 51
44.9999999999953886
  0
LINE
  5
2E752
  8
0
 10
6548.7591187403477306
 20
284.5711572866143797
 30
0.0
 11
6549.4905971146827142
 21
284.5711572866143797
 31
0.0
  0
LINE
  5
2E753
  8
0
 10
6548.7315415758812378
 20
284.5825801221481015
 30
0.0
 11
6548.6362770837122298
 21
284.6778446143168821
 31
0.0
  0
LINE
  5
2E754
  8
0
 10
6549.518174279149207
 20
284.5825801221481015
 30
0.0
 11
6549.6134311474816059
 21
284.6778369904807278
 31
0.0
  0
ARC
  5
2E755
  8
0
 10
6548.7591187403477306
 20
284.6101572866144238
 30
0.0
 40
0.039
 50
224.9999999999930935
 51
270.0
  0
ARC
  5
2E756
  8
0
 10
6549.4905971146827142
 20
284.6101572866144238
 30
0.0
 40
0.039
 50
270.0
 51
315.0000000000046043
  0
ARC
  5
2E757
  8
0
 10
6549.585853983015113
 20
284.7054141549468795
 30
0.0
 40
0.039
 50
315.0000000000022737
 51
0.0000000000032569
  0
ARC
  5
2E758
  8
0
 10
6548.6638542481787226
 20
284.7054217787832044
 30
0.0
 40
0.039
 50
179.9999999999934914
 51
225.0000000000023022
  0
LINE
  5
2E759
  8
0
 10
6548.6362770837122298
 20
284.6778446143168821
 30
0.0
 11
6549.6134387692109158
 21
284.6778446143168821
 31
0.0
  0
LINE
  5
2E75A
  8
0
 10
6549.5237756303658898
 20
288.1532238976141116
 30
0.0
 11
6549.124879847216107
 21
288.1532238976141116
 31
0.0
  0
ARC
  5
2E75B
  8
0
 10
6549.124879847216107
 20
287.7207238976139934
 30
0.0
 40
0.4325000000000001
 50
90.0
 51
180.0
  0
LINE
  5
2E75C
  8
0
 10
6553.0960362048826937
 20
290.3635992398823191
 30
0.0
 11
6553.0960362048826937
 21
285.0779279317466148
 31
0.0
  0
ARC
  5
2E75D
  8
0
 10
6549.3980680721779208
 20
288.6833098830402946
 30
0.0
 40
0.4844690813666885
 50
256.2855382050698267
 51
283.7144617949301164
  0
ARC
  5
2E75E
  8
0
 10
6548.1628733944880878
 20
287.4471279926656848
 30
0.0
 40
0.4839035823454563
 50
346.2774798252409028
 51
13.7225201747591292
  0
LINE
  5
2E75F
  8
0
 10
6549.3848537185140231
 20
286.0898827907021769
 30
0.0
 11
6549.3848537185140231
 21
286.0828112866144011
 31
0.0
  0
LINE
  5
2E760
  8
0
 10
6549.336390798874163
 20
286.1383461905198828
 30
0.0
 11
6549.338462135100599
 21
286.1292028700290189
 31
0.0
  0
ENDSEC
  0
EOF
