  0
SECTION
  2
HEADER
  9
$ACADVER
  1
AC1009
  9
$INSBASE
 10
6638.4566442425775676
 20
305.7161428020476137
 30
0.0
  9
$EXTMIN
 10
6635.7991928280798675
 20
302.5665365028476117
 30
0.0
  9
$EXTMAX
 10
6641.1140956570789058
 20
308.3736231170476003
 30
0.0
  9
$LIMMIN
 10
0.0
 20
0.0
  9
$LIMMAX
 10
11.6929133858000007
 20
8.2677165353999982
  9
$ORTHOMODE
 70
     0
  9
$REGENMODE
 70
     1
  9
$FILLMODE
 70
     1
  9
$QTEXTMODE
 70
     0
  9
$MIRRTEXT
 70
     0
  9
$DRAGMODE
 70
     2
  9
$LTSCALE
 40
0.6431102362
  9
$OSMODE
 70
  4095
  9
$ATTMODE
 70
     1
  9
$TEXTSIZE
 40
0.2
  9
$TRACEWID
 40
0.05
  9
$TEXTSTYLE
  7
STANDARD
  9
$CLAYER
  8
0
  9
$CELTYPE
  6
BYLAYER
  9
$CECOLOR
 62
   256
  9
$DIMSCALE
 40
1.0
  9
$DIMASZ
 40
0.1875
  9
$DIMEXO
 40
0.0625
  9
$DIMDLI
 40
0.4443307087
  9
$DIMRND
 40
0.0
  9
$DIMDLE
 40
0.0
  9
$DIMEXE
 40
0.125
  9
$DIMTP
 40
0.01
  9
$DIMTM
 40
0.01
  9
$DIMTXT
 40
2.0
  9
$DIMCEN
 40
0.1052362205
  9
$DIMTSZ
 40
0.0
  9
$DIMTOL
 70
     1
  9
$DIMLIM
 70
     0
  9
$DIMTIH
 70
     1
  9
$DIMTOH
 70
     1
  9
$DIMSE1
 70
     0
  9
$DIMSE2
 70
     0
  9
$DIMTAD
 70
     0
  9
$DIMZIN
 70
     0
  9
$DIMBLK
  1

  9
$DIMASO
 70
     1
  9
$DIMSHO
 70
     1
  9
$DIMPOST
  1
\X
  9
$DIMAPOST
  1

  9
$DIMALT
 70
     1
  9
$DIMALTD
 70
     2
  9
$DIMALTF
 40
25.3999999999999986
  9
$DIMLFAC
 40
1.0
  9
$DIMTOFL
 70
     0
  9
$DIMTVP
 40
0.0
  9
$DIMTIX
 70
     0
  9
$DIMSOXD
 70
     0
  9
$DIMSAH
 70
     0
  9
$DIMBLK1
  1

  9
$DIMBLK2
  1

  9
$DIMSTYLE
  2
STANDARD
  9
$DIMCLRD
 70
     0
  9
$DIMCLRE
 70
     0
  9
$DIMCLRT
 70
     0
  9
$DIMTFAC
 40
1.0
  9
$DIMGAP
 40
0.09
  9
$LUNITS
 70
     2
  9
$LUPREC
 70
     4
  9
$SKETCHINC
 40
0.1
  9
$FILLETRAD
 40
0.0
  9
$AUNITS
 70
     0
  9
$AUPREC
 70
     0
  9
$MENU
  1
.
  9
$ELEVATION
 40
0.0
  9
$PELEVATION
 40
0.0
  9
$THICKNESS
 40
0.0
  9
$LIMCHECK
 70
     0
  9
$BLIPMODE
 70
     0
  9
$CHAMFERA
 40
0.0
  9
$CHAMFERB
 40
0.0
  9
$SKPOLY
 70
     0
  9
$TDCREATE
 40
2458060.468368056230247
  9
$TDUPDATE
 40
2460734.6137731480412185
  9
$TDINDWG
 40
0.7901112269
  9
$TDUSRTIMER
 40
0.7901112269
  9
$USRTIMER
 70
     1
  9
$ANGBASE
 50
0.0
  9
$ANGDIR
 70
     0
  9
$PDMODE
 70
     0
  9
$PDSIZE
 40
0.3125
  9
$PLINEWID
 40
0.0
  9
$COORDS
 70
     2
  9
$SPLFRAME
 70
     0
  9
$SPLINETYPE
 70
     6
  9
$SPLINESEGS
 70
     8
  9
$ATTDIA
 70
     1
  9
$ATTREQ
 70
     1
  9
$HANDLING
 70
     1
  9
$HANDSEED
  5
33BB2
  9
$SURFTAB1
 70
     6
  9
$SURFTAB2
 70
     6
  9
$SURFTYPE
 70
     6
  9
$SURFU
 70
     6
  9
$SURFV
 70
     6
  9
$UCSNAME
  2

  9
$UCSORG
 10
0.0
 20
0.0
 30
0.0
  9
$UCSXDIR
 10
1.0
 20
0.0
 30
0.0
  9
$UCSYDIR
 10
0.0
 20
1.0
 30
0.0
  9
$PUCSNAME
  2

  9
$PUCSORG
 10
0.0
 20
0.0
 30
0.0
  9
$PUCSXDIR
 10
1.0
 20
0.0
 30
0.0
  9
$PUCSYDIR
 10
0.0
 20
1.0
 30
0.0
  9
$USERI1
 70
     0
  9
$USERI2
 70
     0
  9
$USERI3
 70
     0
  9
$USERI4
 70
     0
  9
$USERI5
 70
     0
  9
$USERR1
 40
0.0
  9
$USERR2
 40
0.0
  9
$USERR3
 40
0.0
  9
$USERR4
 40
0.0
  9
$USERR5
 40
0.0
  9
$WORLDVIEW
 70
     1
  9
$SHADEDGE
 70
     3
  9
$SHADEDIF
 70
    70
  9
$TILEMODE
 70
     1
  9
$MAXACTVP
 70
    64
  9
$PLIMCHECK
 70
     0
  9
$PEXTMIN
 10
1.0000000000000000E+20
 20
1.0000000000000000E+20
 30
1.0000000000000000E+20
  9
$PEXTMAX
 10
-1.0000000000000000E+20
 20
-1.0000000000000000E+20
 30
-1.0000000000000000E+20
  9
$PLIMMIN
 10
0.0
 20
0.0
  9
$PLIMMAX
 10
12.0
 20
9.0
  9
$UNITMODE
 70
     0
  9
$VISRETAIN
 70
     1
  9
$PLINEGEN
 70
     0
  9
$PSLTSCALE
 70
     1
  0
ENDSEC
  0
SECTION
  2
TABLES
  0
TABLE
  2
VPORT
 70
     1
  0
VPORT
  2
*ACTIVE
 70
     0
 10
0.0
 20
0.0
 11
1.0
 21
1.0
 12
2727.0912877972668866
 22
172.8904747074084867
 13
0.0
 23
0.0
 14
1.0
 24
1.0
 15
0.0
 25
0.0
 16
0.0
 26
0.0
 36
60.4960186965801583
 17
3911.3653564453120453
 27
132.5796051025390057
 37
0.0
 40
5.8522194117196591
 41
2.4370946822308679
 42
50.0
 43
0.0
 44
0.0
 50
0.0
 51
0.0
 71
     0
 72
   100
 73
     1
 74
     1
 75
     0
 76
     0
 77
     0
 78
     0
  0
ENDTAB
  0
TABLE
  2
LTYPE
 70
     2
  0
LTYPE
  2
CONTINUOUS
 70
     0
  3
Solid line
 72
    65
 73
     0
 40
0.0
  0
LTYPE
  2
PHANTOM2
 70
     0
  3
___ _ _ ___ _ _ ___ _ _ ___ _ _
 72
    65
 73
     6
 40
1.25
 49
0.625
 49
-0.125
 49
0.125
 49
-0.125
 49
0.125
 49
-0.125
  0
ENDTAB
  0
TABLE
  2
LAYER
 70
     2
  0
LAYER
  2
0
 70
     0
 62
   255
  6
CONTINUOUS
  0
LAYER
  2
DEFPOINTS
 70
     0
 62
     7
  6
CONTINUOUS
  0
ENDTAB
  0
TABLE
  2
STYLE
 70
     1
  0
STYLE
  2
STANDARD
 70
     0
 40
0.0
 41
0.8
 50
0.0
 71
     0
 42
0.2
  3
txt
  4

  0
ENDTAB
  0
TABLE
  2
VIEW
 70
     0
  0
ENDTAB
  0
TABLE
  2
UCS
 70
     0
  0
ENDTAB
  0
TABLE
  2
APPID
 70
    11
  0
APPID
  2
ACAD
 70
     0
  0
APPID
  2
ACAD_MLEADERVER
 70
     0
  0
APPID
  2
ACAD_EXEMPT_FROM_CAD_STANDARDS
 70
     0
  0
APPID
  2
ACAD_NAV_VCDISPLAY
 70
     0
  0
APPID
  2
ACAECLAYERSTANDARD
 70
     0
  0
APPID
  2
ACCMTRANSPARENCY
 70
     0
  0
APPID
  2
ACAD_DSTYLE_DIMJAG
 70
     0
  0
APPID
  2
ACAD_DSTYLE_DIMTALN
 70
     0
  0
APPID
  2
ACDBATTR
 70
     0
  0
APPID
  2
ACADANNOTATIVE
 70
     0
  0
APPID
  2
DCO15
 70
     0
  0
ENDTAB
  0
TABLE
  2
DIMSTYLE
 70
     1
  0
DIMSTYLE
  2
STANDARD
 70
     0
  3

  4

  5

  6

  7

 40
1.0
 41
0.1875
 42
0.0625
 43
0.38
 44
0.125
 45
0.0
 46
0.0
 47
0.01
 48
0.01
140
0.15625
141
0.09
142
0.0
143
25.3999999999999986
144
1.0
145
0.0
146
1.0
147
0.09
 71
     1
 72
     0
 73
     1
 74
     1
 75
     0
 76
     0
 77
     0
 78
     4
170
     0
171
     2
172
     0
173
     0
174
     0
175
     0
176
     0
177
     0
178
     0
  0
ENDTAB
  0
ENDSEC
  0
SECTION
  2
BLOCKS
  0
BLOCK
  8
0
  2
$MODEL_SPACE
 70
     0
 10
0.0
 20
0.0
 30
0.0
  3
$MODEL_SPACE
  1

  0
ENDBLK
  5
21
  8
0
  0
BLOCK
 67
     1
  8
0
  2
$PAPER_SPACE
 70
     0
 10
0.0
 20
0.0
 30
0.0
  3
$PAPER_SPACE
  1

  0
ENDBLK
  5
1D
 67
     1
  8
0
  0
BLOCK
  8
0
  2
_FILLED
 70
     0
 10
0.0
 20
0.0
 30
0.0
  3
_FILLED
  1

  0
SOLID
  5
2853B
  8
0
  6
BYBLOCK
 62
     0
 10
0.0
 20
0.0
 30
0.0
 11
-1.0
 21
0.1666666667
 31
0.0
 12
-1.0
 22
-0.1666666667
 32
0.0
 13
-1.0
 23
-0.1666666667
 33
0.0
  0
ENDBLK
  5
2853C
  8
0
  6
BYBLOCK
 62
     0
  0
ENDSEC
  0
SECTION
  2
ENTITIES
  0
ATTDEF
  5
2842F
  8
DEFPOINTS
 10
6638.4572148338620536
 20
305.7146677088284719
 30
0.0
 40
0.001
  1
P34589-BV
  3

  2
MODELNUMBER
 70
     0
1001
ACDBATTR
1070
     0
1070
     1
  0
ATTDEF
  5
28430
  8
DEFPOINTS
 10
6638.4570890242039241
 20
305.7130008684493987
 30
0.0
 40
0.001
  1
VICE
  3

  2
TRADENAME
 70
     0
1001
ACDBATTR
1070
     0
1070
     1
  0
ATTDEF
  5
28431
  8
DEFPOINTS
 10
6638.4572148338620536
 20
305.7113343754951984
 30
0.0
 40
0.001
  1
VALVE TRIM
  3

  2
PRODUCT
 70
     0
1001
ACDBATTR
1070
     0
1070
     1
  0
LINE
  5
33847
  8
0
 10
6640.3640956570798153
 20
308.3736231170476003
 30
0.0
 11
6636.549192828078958
 21
308.3736231170476003
 31
0.0
  0
LINE
  5
33848
  8
0
 10
6638.8223507769471325
 20
302.5665365028476117
 30
0.0
 11
6638.0909377082098217
 21
302.5665365028476117
 31
0.0
  0
LINE
  5
33849
  8
0
 10
6638.9451924335808144
 20
302.6732238305501141
 30
0.0
 11
6637.9680960515761399
 21
302.6732238305501141
 31
0.0
  0
LINE
  5
3384A
  8
0
 10
6635.7991928280798675
 20
307.6236231170476003
 30
0.0
 11
6635.7991928280798675
 21
303.8086624870476271
 31
0.0
  0
ARC
  5
3384B
  8
0
 10
6636.549192828078958
 20
307.6236231170476003
 30
0.0
 40
0.75
 50
90.0
 51
180.0
  0
LINE
  5
3384C
  8
0
 10
6640.3640956570798153
 20
303.0586624870476271
 30
0.0
 11
6638.9566114281669797
 21
303.0586624870476271
 31
0.0
  0
LINE
  5
3384D
  8
0
 10
6637.956677056989065
 20
303.0586624870476271
 30
0.0
 11
6636.549192828078958
 21
303.0586624870476271
 31
0.0
  0
ARC
  5
3384E
  8
0
 10
6636.549192828078958
 20
303.8086624870476271
 30
0.0
 40
0.75
 50
180.0
 51
270.0
  0
LINE
  5
3384F
  8
0
 10
6636.0561239786793521
 20
307.623691966447609
 30
0.0
 11
6636.0561239786793521
 21
303.8085936376476184
 31
0.0
  0
LINE
  5
33850
  8
0
 10
6636.885557782385149
 20
308.116691966447604
 30
0.0
 11
6636.5491239786788356
 21
308.116691966447604
 31
0.0
  0
LINE
  5
33851
  8
0
 10
6637.0366096498200932
 20
308.1948821665957894
 30
0.0
 11
6637.1212792879314293
 21
308.3146231170475744
 31
0.0
  0
ARC
  5
33852
  8
0
 10
6636.885557782385149
 20
308.3016919664476063
 30
0.0
 40
0.185
 50
270.0
 51
324.7356102976206103
  0
LINE
  5
33853
  8
0
 10
6639.7920091972264345
 20
308.3146231170475744
 30
0.0
 11
6637.1212792879314293
 21
308.3146231170475744
 31
0.0
  0
LINE
  5
33854
  8
0
 10
6639.7920091972264345
 20
303.1176624870475962
 30
0.0
 11
6638.9566107734617617
 21
303.1176624870475962
 31
0.0
  0
LINE
  5
33855
  8
0
 10
6637.9566777116961021
 20
303.1176624870475962
 30
0.0
 11
6637.1212792879314293
 21
303.1176624870475962
 31
0.0
  0
LINE
  5
33856
  8
0
 10
6636.885557782385149
 20
303.3155936376476234
 30
0.0
 11
6636.5491239786788356
 21
303.3155936376476234
 31
0.0
  0
LINE
  5
33857
  8
0
 10
6637.1212792879314293
 20
303.1176624870475962
 30
0.0
 11
6637.0366096498200932
 21
303.2374034374993812
 31
0.0
  0
ARC
  5
33858
  8
0
 10
6636.885557782385149
 20
303.1305936376476211
 30
0.0
 40
0.185
 50
35.2643897023820898
 51
90.0
  0
ARC
  5
33859
  8
0
 10
6636.5491239786788356
 20
307.623691966447609
 30
0.0
 40
0.493
 50
90.0
 51
180.0000000000032117
  0
ARC
  5
3385A
  8
0
 10
6636.5491239786788356
 20
303.8085936376476184
 30
0.0
 40
0.493
 50
180.0000000000032117
 51
270.0
  0
ARC
  5
3385B
  8
0
 10
6638.4566442425775676
 20
305.7161737072476058
 30
0.0
 40
0.491858858600001
 50
64.2732245754421143
 51
115.7267754245578999
  0
LINE
  5
3385C
  8
0
 10
6638.2318196888791135
 20
305.3291028680637851
 30
0.0
 11
6638.2318196888791135
 21
306.1412592099890162
 31
0.0
  0
LINE
  5
3385D
  8
0
 10
6641.1140956570789058
 20
307.6236231170476003
 30
0.0
 11
6641.1140956570789058
 21
303.8086624870476271
 31
0.0
  0
ARC
  5
3385E
  8
0
 10
6640.3640956570798153
 20
307.6236231170476003
 30
0.0
 40
0.75
 50
0.0
 51
90.0
  0
ARC
  5
3385F
  8
0
 10
6640.3640956570798153
 20
303.8086624870476271
 30
0.0
 40
0.75
 50
270.0
 51
0.0
  0
LINE
  5
33860
  8
0
 10
6640.8571645064776021
 20
307.623691966447609
 30
0.0
 11
6640.8571645064776021
 21
303.8085936376476184
 31
0.0
  0
LINE
  5
33861
  8
0
 10
6640.0277307027718052
 20
308.116691966447604
 30
0.0
 11
6640.3641645064781187
 21
308.116691966447604
 31
0.0
  0
LINE
  5
33862
  8
0
 10
6639.8766788353386801
 20
308.1948821665957894
 30
0.0
 11
6639.7920091972264345
 21
308.3146231170475744
 31
0.0
  0
ARC
  5
33863
  8
0
 10
6640.0277307027718052
 20
308.3016919664476063
 30
0.0
 40
0.185
 50
215.2643897023793897
 51
270.0
  0
LINE
  5
33864
  8
0
 10
6640.0277307027718052
 20
303.3155936376476234
 30
0.0
 11
6640.3641645064781187
 21
303.3155936376476234
 31
0.0
  0
LINE
  5
33865
  8
0
 10
6639.7920091972264345
 20
303.1176624870475962
 30
0.0
 11
6639.8766788353386801
 21
303.2374034374993812
 31
0.0
  0
ARC
  5
33866
  8
0
 10
6640.0277307027718052
 20
303.1305936376476211
 30
0.0
 40
0.185
 50
90.0
 51
144.7356102976179102
  0
ARC
  5
33867
  8
0
 10
6640.3641645064781187
 20
307.623691966447609
 30
0.0
 40
0.493
 50
359.9999999999968168
 51
90.0
  0
ARC
  5
33868
  8
0
 10
6640.3641645064781187
 20
303.8085936376476184
 30
0.0
 40
0.493
 50
270.0
 51
359.9999999999968168
  0
LINE
  5
33869
  8
0
 10
6637.9746350104505836
 20
305.8437571005092082
 30
0.0
 11
6637.9746350104505836
 21
305.8419657786672019
 31
0.0
  0
LINE
  5
3386A
  8
0
 10
6637.9746350104505836
 20
305.7422577081159716
 30
0.0
 11
6637.9746350104505836
 21
304.4963076707689993
 31
0.0
  0
ARC
  5
3386B
  8
0
 10
6637.3031178526398435
 20
305.8118557133444142
 30
0.0
 40
0.6721918693859938
 50
0.0095243957847589
 51
2.5673579074863371
  0
ARC
  5
3386C
  8
0
 10
6634.4346040481214004
 20
305.8113788743646069
 30
0.0
 40
3.540705713538133
 50
358.8814086752821026
 51
0.0095243957847589
  0
LINE
  5
3386D
  8
0
 10
6637.9566908324968608
 20
304.3000662013445208
 30
0.0
 11
6637.9566730859060044
 21
302.7008015579261837
 31
0.0
  0
ARC
  5
3386E
  8
0
 10
6637.2988704805457019
 20
304.5139395333422954
 30
0.0
 40
0.6759945136291891
 50
352.5455222252232943
 51
358.5053933559603934
  0
ARC
  5
3386F
  8
0
 10
6633.4162577882916594
 20
305.031518235604608
 30
0.0
 40
4.5929519812848651
 50
351.7863803293259934
 51
352.4272598022021157
  0
ARC
  5
33870
  8
0
 10
6638.4836908324650722
 20
304.3000603533733965
 30
0.0
 40
0.5270000000000001
 50
171.7863803293259934
 51
179.9993642048156914
  0
LINE
  5
33871
  8
0
 10
6637.9680960515761399
 20
302.6732238305501141
 30
0.0
 11
6638.0633605437451479
 21
302.5779593383812767
 31
0.0
  0
ARC
  5
33872
  8
0
 10
6637.9956730859066738
 20
302.7008011251547259
 30
0.0
 40
0.0390000000028467
 50
179.9993642056527108
 51
225.0002703787303062
  0
ARC
  5
33873
  8
0
 10
6638.0909377082098217
 20
302.605536502847599
 30
0.0
 40
0.039
 50
224.9999999999907914
 51
270.0
  0
ARC
  5
33874
  8
0
 10
6638.4006410306737962
 20
305.3311471545883933
 30
0.0
 40
0.1688337186490026
 50
180.6937704930076052
 51
205.4722751140112962
  0
ARC
  5
33875
  8
0
 10
6638.3808830442358158
 20
305.3217348115921936
 30
0.0
 40
0.1469483301732679
 50
205.4722751140112962
 51
224.3642158577237069
  0
ARC
  5
33876
  8
0
 10
6638.3828442346230077
 20
305.3209727449894899
 30
0.0
 40
0.1478299723144308
 50
223.6215526772868998
 51
243.8418895867249887
  0
ARC
  5
33877
  8
0
 10
6638.3805373422319462
 20
305.3176826456298159
 30
0.0
 40
0.1438611858021138
 50
244.0888914922485924
 51
263.1427772290678035
  0
ARC
  5
33878
  8
0
 10
6638.4587541418031833
 20
306.0500187393550959
 30
0.0
 40
0.8803517762843984
 50
263.7793275528593995
 51
269.862681669094286
  0
LINE
  5
33879
  8
0
 10
6638.228497098310072
 20
306.1386299310599952
 30
0.0
 11
6638.2318196888791135
 21
306.1328750353475812
 31
0.0
  0
ARC
  5
3387A
  8
0
 10
6638.2518196888777311
 20
306.1412592099890162
 30
0.0
 40
0.02
 50
115.726775424499607
 51
180.0000000000227942
  0
LINE
  5
3387B
  8
0
 10
6638.2285045138396526
 20
306.1386170869864145
 30
0.0
 11
6638.2318196888791135
 21
306.1408847164988742
 31
0.0
  0
LINE
  5
3387C
  8
0
 10
6638.6814687962778407
 20
305.3291028680637851
 30
0.0
 11
6638.6814687962778407
 21
306.1412592099890162
 31
0.0
  0
LINE
  5
3387D
  8
0
 10
6638.9386534747063706
 20
305.8437571005092082
 30
0.0
 11
6638.9386534747063706
 21
305.8419657786672019
 31
0.0
  0
LINE
  5
3387E
  8
0
 10
6638.9386534747063706
 20
305.7422577081159716
 30
0.0
 11
6638.9386534747063706
 21
304.4963076707689993
 31
0.0
  0
ARC
  5
3387F
  8
0
 10
6639.6101706325171108
 20
305.8118557133444142
 30
0.0
 40
0.6721918693859938
 50
177.4326420925135892
 51
179.9904756042120084
  0
ARC
  5
33880
  8
0
 10
6642.4786844370355539
 20
305.8113788743646069
 30
0.0
 40
3.540705713538133
 50
179.9904756042120084
 51
181.1185913247178974
  0
LINE
  5
33881
  8
0
 10
6638.9565976526600934
 20
304.3000662013445208
 30
0.0
 11
6638.9566153992500404
 21
302.7008015579261837
 31
0.0
  0
ARC
  5
33882
  8
0
 10
6639.6144180046112524
 20
304.5139395333422954
 30
0.0
 40
0.6759945136291891
 50
181.4946066440394929
 51
187.454477774776791
  0
ARC
  5
33883
  8
0
 10
6643.4970306968652949
 20
305.031518235604608
 30
0.0
 40
4.5929519812848651
 50
187.5727401977977991
 51
188.2136196706738929
  0
ARC
  5
33884
  8
0
 10
6638.4295976526918821
 20
304.3000603533733965
 30
0.0
 40
0.5270000000000001
 50
0.0006357951842718
 51
8.2136196706739284
  0
LINE
  5
33885
  8
0
 10
6638.9451924335808144
 20
302.6732238305501141
 30
0.0
 11
6638.8499279414127159
 21
302.5779593383812767
 31
0.0
  0
ARC
  5
33886
  8
0
 10
6638.917615399249371
 20
302.7008011251547259
 30
0.0
 40
0.0390000000028467
 50
314.9997296212696938
 51
0.0006357943472516
  0
ARC
  5
33887
  8
0
 10
6638.8223507769471325
 20
302.605536502847599
 30
0.0
 40
0.039
 50
270.0
 51
315.0000000000092086
  0
ARC
  5
33888
  8
0
 10
6638.5126474544831581
 20
305.3311471545883933
 30
0.0
 40
0.1688337186490026
 50
334.5277248859886754
 51
359.3062295069922811
  0
ARC
  5
33889
  8
0
 10
6638.5324054409211385
 20
305.3217348115921936
 30
0.0
 40
0.1469483301732679
 50
315.6357841422761794
 51
334.5277248859886754
  0
ARC
  5
3388A
  8
0
 10
6638.5304442505339466
 20
305.3209727449894899
 30
0.0
 40
0.1478299723144308
 50
296.1581104132749829
 51
316.3784473227131002
  0
ARC
  5
3388B
  8
0
 10
6638.532751142925008
 20
305.3176826456298159
 30
0.0
 40
0.1438611858021138
 50
276.8572227709321965
 51
295.9111085077512939
  0
ARC
  5
3388C
  8
0
 10
6638.454534343353771
 20
306.0500187393550959
 30
0.0
 40
0.8803517762843984
 50
270.137318330905714
 51
276.2206724471406005
  0
LINE
  5
3388D
  8
0
 10
6638.6847913868468822
 20
306.1386299310599952
 30
0.0
 11
6638.6814687962778407
 21
306.1328750353475812
 31
0.0
  0
ARC
  5
3388E
  8
0
 10
6638.6614687962792232
 20
306.1412592099890162
 30
0.0
 40
0.02
 50
359.9999999999772058
 51
64.2732245755003646
  0
LINE
  5
3388F
  8
0
 10
6638.6847839713173016
 20
306.1386170869864145
 30
0.0
 11
6638.6814687962778407
 21
306.1408847164988742
 31
0.0
  0
ARC
  5
33890
  8
0
 10
6638.4566442425775676
 20
305.7161428020476137
 30
0.0
 40
1.062992125999999
 50
296.9649737662397797
 51
243.0350262337601919
  0
ARC
  5
33891
  8
0
 10
6638.4566442425775676
 20
305.7161428020476137
 30
0.0
 40
0.5
 50
16.0490863535811989
 51
163.9509136464187975
  0
ARC
  5
33892
  8
0
 10
6638.7021118949487573
 20
306.1286299311070138
 30
0.0
 40
0.02
 50
59.2434757916679828
 51
150.0000001553434004
  0
ARC
  5
33893
  8
0
 10
6638.211176590208197
 20
306.1286299311070138
 30
0.0
 40
0.02
 50
29.9999998446594311
 51
120.7565242083319959
  0
ARC
  5
33894
  8
0
 10
6638.9002534747050959
 20
305.8437571005092082
 30
0.0
 40
0.0384
 50
0.0
 51
16.0490863535811989
  0
ARC
  5
33895
  8
0
 10
6638.0130350104518584
 20
305.8437571005092082
 30
0.0
 40
0.0384
 50
163.9509136464187975
 51
180.0
  0
ARC
  5
33896
  8
0
 10
6638.4566442425775676
 20
305.7161428020476137
 30
0.0
 40
0.6488904702537193
 50
317.9722480685371124
 51
222.0277519314628876
  0
CIRCLE
  5
33897
  8
0
 10
6638.4566442425775676
 20
305.4406958819976126
 30
0.0
 40
0.0468053358999999
  0
CIRCLE
  5
33898
  8
0
 10
6638.4566442425775676
 20
305.4406958819976126
 30
0.0
 40
0.0971351769999998
  0
CIRCLE
  5
33899
  8
0
 10
6638.4566442425775676
 20
305.4406958819976126
 30
0.0
 40
0.1179712312000003
  0
LINE
  5
3389A
  8
0
 10
6638.4566442425775676
 20
305.4875012178976021
 30
0.0
 11
6638.4160764925782132
 21
305.4640410555597896
 31
0.0
  0
LINE
  5
3389B
  8
0
 10
6638.4160764925782132
 20
305.4640410555597896
 30
0.0
 11
6638.4160764925782132
 21
305.4173507084353787
 31
0.0
  0
LINE
  5
3389C
  8
0
 10
6638.4160764925782132
 20
305.4173507084353787
 30
0.0
 11
6638.4566442422319597
 21
305.393890546097623
 31
0.0
  0
LINE
  5
3389D
  8
0
 10
6638.4566442425775676
 20
305.393890546097623
 30
0.0
 11
6638.4971788525790544
 21
305.4172932464464907
 31
0.0
  0
LINE
  5
3389E
  8
0
 10
6638.4971788527545868
 20
305.4172932467512851
 30
0.0
 11
6638.4971788378343263
 21
305.4640985584143777
 31
0.0
  0
LINE
  5
3389F
  8
0
 10
6638.4566442425775676
 20
305.4875012178976021
 30
0.0
 11
6638.4971788377570192
 21
305.4640985585479029
 31
0.0
  0
ENDSEC
  0
EOF
