  0
SECTION
  2
HEADER
  9
$ACADVER
  1
AC1009
  9
$INSBASE
 10
300.139474779102386
 20
9.2165886833766137
 30
0.0
  9
$EXTMIN
 10
297.4753518469642017
 20
4.8065493037138927
 30
-0.0000000000000058
  9
$EXTMAX
 10
302.8119159690675133
 20
9.2214882159349472
 30
0.0000000000000104
  9
$LIMMIN
 10
0.0
 20
0.0
  9
$LIMMAX
 10
11.6929133858000007
 20
8.2677165353999982
  9
$ORTHOMODE
 70
     0
  9
$REGENMODE
 70
     1
  9
$FILLMODE
 70
     1
  9
$QTEXTMODE
 70
     0
  9
$MIRRTEXT
 70
     0
  9
$DRAGMODE
 70
     2
  9
$LTSCALE
 40
0.6431102362
  9
$OSMODE
 70
  4095
  9
$ATTMODE
 70
     1
  9
$TEXTSIZE
 40
0.2
  9
$TRACEWID
 40
0.05
  9
$TEXTSTYLE
  7
STANDARD
  9
$CLAYER
  8
0
  9
$CELTYPE
  6
BYLAYER
  9
$CECOLOR
 62
   256
  9
$DIMSCALE
 40
1.0
  9
$DIMASZ
 40
0.1875
  9
$DIMEXO
 40
0.0625
  9
$DIMDLI
 40
0.4443307087
  9
$DIMRND
 40
0.0
  9
$DIMDLE
 40
0.0
  9
$DIMEXE
 40
0.125
  9
$DIMTP
 40
0.01
  9
$DIMTM
 40
0.01
  9
$DIMTXT
 40
1.0
  9
$DIMCEN
 40
0.1052362205
  9
$DIMTSZ
 40
0.0
  9
$DIMTOL
 70
     1
  9
$DIMLIM
 70
     0
  9
$DIMTIH
 70
     1
  9
$DIMTOH
 70
     1
  9
$DIMSE1
 70
     0
  9
$DIMSE2
 70
     0
  9
$DIMTAD
 70
     0
  9
$DIMZIN
 70
     0
  9
$DIMBLK
  1

  9
$DIMASO
 70
     1
  9
$DIMSHO
 70
     1
  9
$DIMPOST
  1
\X
  9
$DIMAPOST
  1

  9
$DIMALT
 70
     1
  9
$DIMALTD
 70
     2
  9
$DIMALTF
 40
25.3999999999999986
  9
$DIMLFAC
 40
1.0
  9
$DIMTOFL
 70
     0
  9
$DIMTVP
 40
0.0
  9
$DIMTIX
 70
     0
  9
$DIMSOXD
 70
     0
  9
$DIMSAH
 70
     0
  9
$DIMBLK1
  1

  9
$DIMBLK2
  1

  9
$DIMSTYLE
  2
STANDARD
  9
$DIMCLRD
 70
     0
  9
$DIMCLRE
 70
     0
  9
$DIMCLRT
 70
     0
  9
$DIMTFAC
 40
1.0
  9
$DIMGAP
 40
0.09
  9
$LUNITS
 70
     2
  9
$LUPREC
 70
     4
  9
$SKETCHINC
 40
0.1
  9
$FILLETRAD
 40
0.005
  9
$AUNITS
 70
     0
  9
$AUPREC
 70
     0
  9
$MENU
  1
.
  9
$ELEVATION
 40
0.0
  9
$PELEVATION
 40
0.0
  9
$THICKNESS
 40
0.0
  9
$LIMCHECK
 70
     0
  9
$BLIPMODE
 70
     0
  9
$CHAMFERA
 40
0.0
  9
$CHAMFERB
 40
0.0
  9
$SKPOLY
 70
     0
  9
$TDCREATE
 40
2458267.4656481482088566
  9
$TDUPDATE
 40
2460725.6794560188427567
  9
$TDINDWG
 40
0.195766713
  9
$TDUSRTIMER
 40
0.195766713
  9
$USRTIMER
 70
     1
  9
$ANGBASE
 50
0.0
  9
$ANGDIR
 70
     0
  9
$PDMODE
 70
     0
  9
$PDSIZE
 40
0.3125
  9
$PLINEWID
 40
0.0
  9
$COORDS
 70
     1
  9
$SPLFRAME
 70
     0
  9
$SPLINETYPE
 70
     6
  9
$SPLINESEGS
 70
     8
  9
$ATTDIA
 70
     1
  9
$ATTREQ
 70
     1
  9
$HANDLING
 70
     1
  9
$HANDSEED
  5
1F3A
  9
$SURFTAB1
 70
     6
  9
$SURFTAB2
 70
     6
  9
$SURFTYPE
 70
     6
  9
$SURFU
 70
     6
  9
$SURFV
 70
     6
  9
$UCSNAME
  2

  9
$UCSORG
 10
0.0
 20
0.0
 30
0.0
  9
$UCSXDIR
 10
1.0
 20
0.0
 30
0.0
  9
$UCSYDIR
 10
0.0
 20
1.0
 30
0.0
  9
$PUCSNAME
  2

  9
$PUCSORG
 10
0.0
 20
0.0
 30
0.0
  9
$PUCSXDIR
 10
1.0
 20
0.0
 30
0.0
  9
$PUCSYDIR
 10
0.0
 20
1.0
 30
0.0
  9
$USERI1
 70
     0
  9
$USERI2
 70
     0
  9
$USERI3
 70
     0
  9
$USERI4
 70
     0
  9
$USERI5
 70
     0
  9
$USERR1
 40
0.0
  9
$USERR2
 40
0.0
  9
$USERR3
 40
0.0
  9
$USERR4
 40
0.0
  9
$USERR5
 40
0.0
  9
$WORLDVIEW
 70
     1
  9
$SHADEDGE
 70
     3
  9
$SHADEDIF
 70
    70
  9
$TILEMODE
 70
     1
  9
$MAXACTVP
 70
    64
  9
$PLIMCHECK
 70
     0
  9
$PEXTMIN
 10
1.0000000000000000E+20
 20
1.0000000000000000E+20
 30
1.0000000000000000E+20
  9
$PEXTMAX
 10
-1.0000000000000000E+20
 20
-1.0000000000000000E+20
 30
-1.0000000000000000E+20
  9
$PLIMMIN
 10
0.0
 20
0.0
  9
$PLIMMAX
 10
12.0
 20
9.0
  9
$UNITMODE
 70
     0
  9
$VISRETAIN
 70
     1
  9
$PLINEGEN
 70
     0
  9
$PSLTSCALE
 70
     1
  0
ENDSEC
  0
SECTION
  2
TABLES
  0
TABLE
  2
VPORT
 70
     1
  0
VPORT
  2
*ACTIVE
 70
     0
 10
0.0
 20
0.0
 11
1.0
 21
1.0
 12
198.1582594573322069
 22
-2.7981087329465231
 13
0.0
 23
0.0
 14
1.0
 24
1.0
 15
0.0
 25
0.0
 16
-0.0000000000000142
 26
0.0
 36
62.9619509154070727
 17
101.9853744506835938
 27
9.8121274927709443
 37
0.0
 40
4.4458007238024591
 41
2.204387990762124
 42
50.0
 43
0.0
 44
0.0
 50
0.0
 51
0.0
 71
     0
 72
   100
 73
     1
 74
     1
 75
     0
 76
     0
 77
     0
 78
     0
  0
ENDTAB
  0
TABLE
  2
LTYPE
 70
     2
  0
LTYPE
  2
CONTINUOUS
 70
     0
  3
Solid line
 72
    65
 73
     0
 40
0.0
  0
LTYPE
  2
PHANTOM2
 70
     0
  3
___ _ _ ___ _ _ ___ _ _ ___ _ _
 72
    65
 73
     6
 40
1.25
 49
0.625
 49
-0.125
 49
0.125
 49
-0.125
 49
0.125
 49
-0.125
  0
ENDTAB
  0
TABLE
  2
LAYER
 70
     2
  0
LAYER
  2
0
 70
     0
 62
   255
  6
CONTINUOUS
  0
LAYER
  2
DEFPOINTS
 70
     0
 62
     7
  6
CONTINUOUS
  0
ENDTAB
  0
TABLE
  2
STYLE
 70
     1
  0
STYLE
  2
STANDARD
 70
     0
 40
0.0
 41
0.8
 50
0.0
 71
     0
 42
0.2
  3
txt
  4

  0
ENDTAB
  0
TABLE
  2
VIEW
 70
     0
  0
ENDTAB
  0
TABLE
  2
UCS
 70
     0
  0
ENDTAB
  0
TABLE
  2
APPID
 70
     9
  0
APPID
  2
ACAD
 70
     0
  0
APPID
  2
ACAD_MLEADERVER
 70
     0
  0
APPID
  2
ACAD_EXEMPT_FROM_CAD_STANDARDS
 70
     0
  0
APPID
  2
ACAD_DSTYLE_DIMJAG
 70
     0
  0
APPID
  2
ACAD_DSTYLE_DIMTALN
 70
     0
  0
APPID
  2
ACAD_NAV_VCDISPLAY
 70
     0
  0
APPID
  2
ACAECLAYERSTANDARD
 70
     0
  0
APPID
  2
ACCMTRANSPARENCY
 70
     0
  0
APPID
  2
ACDBATTR
 70
     0
  0
ENDTAB
  0
TABLE
  2
DIMSTYLE
 70
     1
  0
DIMSTYLE
  2
STANDARD
 70
     0
  3

  4

  5

  6

  7

 40
1.0
 41
0.1875
 42
0.0625
 43
0.38
 44
0.125
 45
0.0
 46
0.0
 47
0.01
 48
0.01
140
0.15625
141
0.09
142
0.0
143
25.3999999999999986
144
1.0
145
0.0
146
1.0
147
0.09
 71
     1
 72
     0
 73
     1
 74
     1
 75
     0
 76
     0
 77
     0
 78
     4
170
     0
171
     2
172
     0
173
     0
174
     0
175
     0
176
     0
177
     0
178
     0
  0
ENDTAB
  0
ENDSEC
  0
SECTION
  2
BLOCKS
  0
BLOCK
  8
0
  2
$MODEL_SPACE
 70
     0
 10
0.0
 20
0.0
 30
0.0
  3
$MODEL_SPACE
  1

  0
ENDBLK
  5
21
  8
0
  0
BLOCK
 67
     1
  8
0
  2
$PAPER_SPACE
 70
     0
 10
0.0
 20
0.0
 30
0.0
  3
$PAPER_SPACE
  1

  0
ENDBLK
  5
1D
 67
     1
  8
0
  0
BLOCK
  8
0
  2
_FILLED
 70
     0
 10
0.0
 20
0.0
 30
0.0
  3
_FILLED
  1

  0
SOLID
  5
1619
  8
0
  6
BYBLOCK
 62
     0
 10
0.0
 20
0.0
 30
0.0
 11
-1.0
 21
0.1666666667
 31
0.0
 12
-1.0
 22
-0.1666666667
 32
0.0
 13
-1.0
 23
-0.1666666667
 33
0.0
  0
ENDBLK
  5
161A
  8
0
  6
BYBLOCK
 62
     0
  0
ENDSEC
  0
SECTION
  2
ENTITIES
  0
ATTDEF
  5
D4F
  8
DEFPOINTS
 10
300.1366314246948832
 20
9.2204479033043611
 30
0.0
 40
0.001
  1
P34590-BAF
  3

  2
MODELNUMBER
 70
     0
1001
ACDBATTR
1070
     0
1070
     1
  0
ATTDEF
  5
D50
  8
DEFPOINTS
 10
300.1366314246948832
 20
9.2187812366376978
 30
0.0
 40
0.001
  1
VICE
  3

  2
TRADENAME
 70
     0
1001
ACDBATTR
1070
     0
1070
     1
  0
ATTDEF
  5
D51
  8
DEFPOINTS
 10
300.1366314246948832
 20
9.2171145699710326
 30
0.0
 40
0.001
  1
VALVE TRIM
  3

  2
PRODUCT
 70
     0
1001
ACDBATTR
1070
     0
1070
     1
  0
LINE
  5
1DD8
  8
0
 10
297.4820233646024121
 20
8.8635198339952712
 30
0.0
 11
297.4820233646024121
 21
9.2165886833766137
 31
0.0
  0
LINE
  5
1DD9
  8
0
 10
299.0765135583025085
 20
7.029209957281731
 30
0.0
 11
299.0765135583025085
 21
7.5223366959766169
 31
0.0
  0
LINE
  5
1DDA
  8
0
 10
299.0765135583025085
 20
7.5823367148766163
 30
0.0
 11
299.0765135583025085
 21
8.6015886833766153
 31
0.0
  0
LINE
  5
1DDB
  8
0
 10
299.6574655469755157
 20
5.4403195284307984
 30
0.0
 11
299.6574655469755157
 21
6.8717855148766152
 31
0.0
  0
LINE
  5
1DDC
  8
0
 10
299.9146502254025108
 20
4.881001525431123
 30
0.0
 11
299.9146502254025108
 21
5.6943380101836096
 31
0.0
  0
LINE
  5
1DDD
  8
0
 10
299.6395124957264215
 20
5.2961842827112164
 30
0.0
 11
299.6395124957264215
 21
5.3180009202419987
 31
0.0
  0
LINE
  5
1DDE
  8
0
 10
301.1824359999025091
 20
7.5623367148766159
 30
0.0
 11
299.0965135583024903
 21
7.5623367148766159
 31
0.0
  0
LINE
  5
1DDF
  8
0
 10
299.0865135583024994
 20
7.5323366959766149
 30
0.0
 11
301.1924359999025
 21
7.5323366959766149
 31
0.0
  0
LINE
  5
1DE0
  8
0
 10
299.4694747980025227
 20
7.5323366959766149
 30
0.0
 11
299.4570483719605818
 21
7.5447631219185149
 31
0.0
  0
ARC
  5
1DE1
  8
0
 10
299.4146219652600962
 20
7.50233671487661
 30
0.0
 40
0.06
 50
45.000000230535818
 51
89.9999999999967457
  0
ARC
  5
1DE2
  8
0
 10
299.0965135583024903
 20
7.5823367148766163
 30
0.0
 40
0.02
 50
180.0000000000048885
 51
269.9999999999968168
  0
ARC
  5
1DE3
  8
0
 10
299.0865135583024994
 20
7.5223366959766143
 30
0.0
 40
0.01
 50
90.0000000000130314
 51
179.9999999999897966
  0
LINE
  5
1DE4
  8
0
 10
299.4906152140487734
 20
6.8817855148766158
 30
0.0
 11
300.7891157242731879
 21
6.8817855148766158
 31
0.0
  0
LINE
  5
1DE5
  8
0
 10
299.4506738579480043
 20
6.8876470598128332
 30
0.0
 11
299.1045920516091883
 21
6.9914716016446166
 31
0.0
  0
ARC
  5
1DE6
  8
0
 10
299.4902245239831018
 20
7.0181369607434601
 30
0.0
 40
0.136352005591027
 50
253.1382747526936043
 51
270.164170100708418
  0
ARC
  5
1DE7
  8
0
 10
299.115913558302509
 20
7.029209957281731
 30
0.0
 40
0.0394000000000023
 50
180.0000000000025011
 51
253.3007557629657072
  0
ARC
  5
1DE8
  8
0
 10
299.6674655469755066
 20
6.8717855148766107
 30
0.0
 40
0.01
 50
90.0000000000195257
 51
179.9999999999795932
  0
LINE
  5
1DE9
  8
0
 10
297.4820233646024121
 20
9.2165886833766137
 30
0.0
 11
302.7969261936024736
 21
9.2165886833766137
 31
0.0
  0
ARC
  5
1DEA
  8
0
 10
300.1445635944119203
 20
5.312263812854475
 30
0.0
 40
0.5053069993312241
 50
181.8235345406469037
 51
269.4229793590441773
  0
ARC
  5
1DEB
  8
0
 10
299.8949228243661196
 20
4.8960879251209226
 30
0.0
 40
0.02
 50
239.0427997987922879
 51
329.9458934245733985
  0
ARC
  5
1DEC
  8
0
 10
300.1395036796023987
 20
5.3070926014766151
 30
0.0
 40
0.5001101632362009
 50
164.5501300760579113
 51
178.7501749786968901
  0
ARC
  5
1DED
  8
0
 10
300.1698786073291103
 20
4.4584906486000833
 30
0.0
 40
1.395296312982317
 50
91.248587061347493
 51
95.0818747798556245
  0
ARC
  5
1DEE
  8
0
 10
300.0617037699357752
 20
5.7093263307028401
 30
0.0
 40
0.1398286873825597
 50
96.3310798500086065
 51
132.6728268179662962
  0
ARC
  5
1DEF
  8
0
 10
300.0777582223262243
 20
5.6919117230007741
 30
0.0
 40
0.1635144215483509
 50
132.6728268179662962
 51
162.7684214831814984
  0
ARC
  5
1DF0
  8
0
 10
300.093032863299527
 20
5.690988774442121
 30
0.0
 40
0.1784140770319539
 50
163.9385269633050086
 51
178.924365452285997
  0
ARC
  5
1DF1
  8
0
 10
299.9346502254024927
 20
4.881001525431123
 30
0.0
 40
0.02
 50
180.0
 51
244.736741111436487
  0
LINE
  5
1DF2
  8
0
 10
299.9146502254025108
 20
4.8902476913737161
 30
0.0
 11
299.912233881341308
 21
4.8860715731702049
 31
0.0
  0
LINE
  5
1DF3
  8
0
 10
299.9112432265941948
 20
4.8845274549265483
 30
0.0
 11
299.9146502254025108
 21
4.8822710320671092
 31
0.0
  0
LINE
  5
1DF4
  8
0
 10
299.1045920516182264
 20
6.9914716016419174
 30
0.0
 11
301.1743575065867731
 21
6.9914716016419174
 31
0.0
  0
ARC
  5
1DF5
  8
0
 10
298.0642523501597907
 20
5.2271076040991353
 30
0.0
 40
1.5938897562979031
 50
358.320457598664575
 51
1.30616586413445
  0
ARC
  5
1DF6
  8
0
 10
299.6958408565117793
 20
5.179266257388945
 30
0.0
 40
0.0384
 50
178.3204575986661098
 51
196.0725359557407046
  0
ARC
  5
1DF7
  8
0
 10
304.573572956824421
 20
5.3185705419861442
 30
0.0
 40
4.9161541323393827
 50
179.8801966555797094
 51
180.6425352778948081
  0
LINE
  5
1DF8
  8
0
 10
299.6574655469755157
 20
5.4403195284307939
 30
0.0
 11
299.6574295715025187
 21
5.3288500299793098
 31
0.0
  0
LINE
  5
1DF9
  8
0
 10
297.7389545151211223
 20
8.6065886833766161
 30
0.0
 11
302.5399950430838203
 21
8.6065886833766179
 31
0.0
  0
LINE
  5
1DFA
  8
0
 10
297.7035991760532738
 20
8.6212333443258302
 30
0.0
 11
297.4966680255346887
 21
8.8281644949444864
 31
0.0
  0
ARC
  5
1DFB
  8
0
 10
297.7389545151211223
 20
8.6565886833766097
 30
0.0
 40
0.0500000000000081
 50
224.9999999861495894
 51
270.0000000932643047
  0
ARC
  5
1DFC
  8
0
 10
297.5320233646024803
 20
8.8635198339952712
 30
0.0
 40
0.05
 50
180.0
 51
224.9999999861599065
  0
LINE
  5
1DFD
  8
0
 10
297.4820233646024121
 20
8.8635198339952712
 30
0.0
 11
298.5989297544555825
 21
8.8635198339952712
 31
0.0
  0
LINE
  5
1DFE
  8
0
 10
298.8040703523935804
 20
8.6656438014766177
 30
0.0
 11
301.4748792058113054
 21
8.6656438014766213
 31
0.0
  0
LINE
  5
1DFF
  8
0
 10
298.8040703523935804
 20
8.6656438014766177
 30
0.0
 11
298.7018087548507879
 21
8.8102653581028196
 31
0.0
  0
ARC
  5
1E00
  8
0
 10
298.5989297544555825
 20
8.7375198339952771
 30
0.0
 40
0.126
 50
35.2640500640540822
 51
90.0
  0
LINE
  5
1E01
  8
0
 10
302.7969261936024736
 20
8.8635198339952712
 30
0.0
 11
302.7969261936024736
 21
9.2165886833766137
 31
0.0
  0
LINE
  5
1E02
  8
0
 10
301.2024359999024909
 20
7.029209957281731
 30
0.0
 11
301.2024359999024909
 21
7.5223366959766169
 31
0.0
  0
LINE
  5
1E03
  8
0
 10
301.2024359999024909
 20
7.5823367148766163
 30
0.0
 11
301.2024359999024909
 21
8.6015886833766153
 31
0.0
  0
LINE
  5
1E04
  8
0
 10
300.6214840112294269
 20
5.4403195284307984
 30
0.0
 11
300.6214840112294269
 21
6.8717855148766152
 31
0.0
  0
LINE
  5
1E05
  8
0
 10
300.3642993328024886
 20
4.881001525431123
 30
0.0
 11
300.3642993328024886
 21
5.6943380101836096
 31
0.0
  0
LINE
  5
1E06
  8
0
 10
300.8094747602024768
 20
7.5323366959766149
 30
0.0
 11
300.8219011862444177
 21
7.5447631219185149
 31
0.0
  0
ARC
  5
1E07
  8
0
 10
300.8643275929447896
 20
7.50233671487661
 30
0.0
 40
0.06
 50
90.0000000000032543
 51
134.9999997694640967
  0
ARC
  5
1E08
  8
0
 10
301.1824359999025091
 20
7.5823367148766163
 30
0.0
 40
0.02
 50
270.0000000000032969
 51
359.9999999999948841
  0
ARC
  5
1E09
  8
0
 10
301.1924359999025
 20
7.5223366959766143
 30
0.0
 40
0.01
 50
0.0000000000101778
 51
89.9999999999837144
  0
LINE
  5
1E0A
  8
0
 10
300.8282757002569952
 20
6.8876470598128332
 30
0.0
 11
301.1743575065958112
 21
6.9914716016446166
 31
0.0
  0
ARC
  5
1E0B
  8
0
 10
300.788725034221784
 20
7.0181369607434601
 30
0.0
 40
0.136352005591027
 50
269.8358298992883988
 51
286.8617252473064241
  0
ARC
  5
1E0C
  8
0
 10
301.1630359999024904
 20
7.029209957281731
 30
0.0
 40
0.0394000000000023
 50
286.6992442370342928
 51
359.9999999999973852
  0
ARC
  5
1E0D
  8
0
 10
300.6114840112294928
 20
6.8717855148766107
 30
0.0
 40
0.01
 50
0.0000000000203555
 51
89.9999999999804601
  0
ARC
  5
1E0E
  8
0
 10
300.1090709508757755
 20
4.4584906486000833
 30
0.0
 40
1.395296312982317
 50
84.9181252201444039
 51
88.7514129386524928
  0
ARC
  5
1E0F
  8
0
 10
300.2172457882692242
 20
5.7093263307028401
 30
0.0
 40
0.1398286873825597
 50
47.3271731820336896
 51
83.6689201499914077
  0
ARC
  5
1E10
  8
0
 10
300.2011913358787751
 20
5.6919117230007741
 30
0.0
 40
0.1635144215483509
 50
17.2315785168184803
 51
47.3271731820336896
  0
ARC
  5
1E11
  8
0
 10
300.1859166949054156
 20
5.690988774442121
 30
0.0
 40
0.1784140770319539
 50
1.0756345477139759
 51
16.0614730366950305
  0
ARC
  5
1E12
  8
0
 10
300.139445878602487
 20
5.3150926014766142
 30
0.0
 40
0.4999999999999977
 50
270.0033117533516815
 51
295.2632588885635982
  0
ARC
  5
1E13
  8
0
 10
300.3442993328025068
 20
4.881001525431123
 30
0.0
 40
0.02
 50
295.2632588885634846
 51
0.0
  0
LINE
  5
1E14
  8
0
 10
300.3642993328024886
 20
4.8902476913737161
 30
0.0
 11
300.3667156768635778
 21
4.8860715731702049
 31
0.0
  0
LINE
  5
1E15
  8
0
 10
300.3677063316108047
 20
4.8845274549265483
 30
0.0
 11
300.3642993328024886
 21
4.8822710320671092
 31
0.0
  0
LINE
  5
1E16
  8
0
 10
302.5753503821517256
 20
8.6212333443258302
 30
0.0
 11
302.7822815326704244
 21
8.8281644949444864
 31
0.0
  0
ARC
  5
1E17
  8
0
 10
302.5399950430838203
 20
8.6565886833766097
 30
0.0
 40
0.0500000000000081
 50
269.999999906735809
 51
315.0000000138504106
  0
ARC
  5
1E18
  8
0
 10
302.7469261936025191
 20
8.8635198339952712
 30
0.0
 40
0.05
 50
315.0000000138376777
 51
0.0
  0
LINE
  5
1E19
  8
0
 10
302.7969261936024736
 20
8.8635198339952712
 30
0.0
 11
301.6800198037493033
 21
8.8635198339952712
 31
0.0
  0
LINE
  5
1E1A
  8
0
 10
301.4748792058113054
 20
8.6656438014766177
 30
0.0
 11
301.5771408033540979
 21
8.8102653581028196
 31
0.0
  0
ARC
  5
1E1B
  8
0
 10
301.6800198037493033
 20
8.7375198339952771
 30
0.0
 40
0.126
 50
90.0
 51
144.7359499359457118
  0
ARC
  5
1E1C
  8
0
 10
300.1395036796023987
 20
5.3150926014766142
 30
0.0
 40
0.4999999999999977
 50
244.7367411114362881
 51
269.9966882466483185
  0
LINE
  5
1E1D
  8
0
 10
300.6394370624785779
 20
5.2961842827112164
 30
0.0
 11
300.6394370624785779
 21
5.3180009202419987
 31
0.0
  0
ARC
  5
1E1E
  8
0
 10
300.1343859637930223
 20
5.312263812854475
 30
0.0
 40
0.5053069993312241
 50
270.5770206409525827
 51
358.1764654593528121
  0
ARC
  5
1E1F
  8
0
 10
300.139445878602487
 20
5.3070926014766151
 30
0.0
 40
0.5001101632362009
 50
1.249825021303107
 51
15.4498699239420905
  0
ARC
  5
1E20
  8
0
 10
302.2146972080450951
 20
5.2271076040991353
 30
0.0
 40
1.5938897562979031
 50
178.6938341358655009
 51
181.6795424013349987
  0
ARC
  5
1E21
  8
0
 10
300.5831087016932202
 20
5.179266257388945
 30
0.0
 40
0.0384
 50
343.9274640442590112
 51
1.679542401333858
  0
ARC
  5
1E22
  8
0
 10
295.7053766013805784
 20
5.3185705419861442
 30
0.0
 40
4.9161541323393827
 50
359.3574647221050782
 51
0.1198033444202743
  0
LINE
  5
1E23
  8
0
 10
300.6214840112294269
 20
5.4403195284307939
 30
0.0
 11
300.6215199867024808
 21
5.3288500299793098
 31
0.0
  0
ARC
  5
1E24
  8
0
 10
300.384026733838823
 20
4.8960879251209226
 30
0.0
 40
0.02
 50
210.0541065754264878
 51
300.9572002012076837
  0
CIRCLE
  5
1E26
  8
0
 10
300.1394747790524775
 20
5.580092601476613
 30
0.0
 40
0.1119777567
  0
CIRCLE
  5
1E27
  8
0
 10
300.1394747790524775
 20
5.580092601476613
 30
0.0
 40
0.0971351770000002
  0
CIRCLE
  5
1E28
  8
0
 10
300.1394747790524775
 20
5.580092601476613
 30
0.0
 40
0.0468053359000002
  0
LINE
  5
1E29
  8
0
 10
300.1394803864524761
 20
5.6269329615766122
 30
0.0
 11
300.0989126409834853
 21
5.603517637677462
 31
0.0
  0
LINE
  5
1E2A
  8
0
 10
300.0989126409834853
 20
5.603517637677462
 30
0.0
 11
300.0989070335834867
 21
5.5566772775774611
 31
0.0
  0
LINE
  5
1E2B
  8
0
 10
300.0989070335834867
 20
5.5566772775774611
 30
0.0
 11
300.139469171652479
 21
5.5332522413766121
 31
0.0
  0
LINE
  5
1E2C
  8
0
 10
300.139469171652479
 20
5.5332522413766121
 30
0.0
 11
300.1800369171215266
 21
5.5566675652757631
 31
0.0
  0
LINE
  5
1E2D
  8
0
 10
300.1800369171215266
 20
5.5566675652757631
 30
0.0
 11
300.1800425245215251
 21
5.6035079253757623
 31
0.0
  0
LINE
  5
1E2E
  8
0
 10
300.1800425245215251
 20
5.6035079253757623
 30
0.0
 11
300.1394803864524761
 21
5.6269329615766122
 31
0.0
  0
ARC
  5
1E73
  8
0
 10
299.081513558302504
 20
8.6015886833766153
 30
0.0
 40
0.005
 50
90.0
 51
180.0
  0
ARC
  5
1E74
  8
0
 10
301.1974359999024955
 20
8.6015886833766153
 30
0.0
 40
0.005
 50
0.0
 51
90.0
  0
ENDSEC
  0
EOF
