  0
SECTION
  2
HEADER
  9
$ACADVER
  1
AC1009
  9
$INSBASE
 10
293.6544912015463069
 20
8.0975793040162873
 30
0.0
  9
$EXTMIN
 10
289.2382735593914731
 20
4.9475637727762454
 30
-0.0015258207003583
  9
$EXTMAX
 10
293.6744430469008762
 20
10.7553878624299095
 30
0.0000000349246037
  9
$LIMMIN
 10
0.0
 20
0.0
  9
$LIMMAX
 10
11.6929133858000007
 20
8.2677165353999982
  9
$ORTHOMODE
 70
     0
  9
$REGENMODE
 70
     1
  9
$FILLMODE
 70
     1
  9
$QTEXTMODE
 70
     0
  9
$MIRRTEXT
 70
     0
  9
$DRAGMODE
 70
     2
  9
$LTSCALE
 40
0.6431102362
  9
$OSMODE
 70
  4095
  9
$ATTMODE
 70
     1
  9
$TEXTSIZE
 40
0.2
  9
$TRACEWID
 40
0.05
  9
$TEXTSTYLE
  7
STANDARD
  9
$CLAYER
  8
0
  9
$CELTYPE
  6
BYLAYER
  9
$CECOLOR
 62
   256
  9
$DIMSCALE
 40
1.0
  9
$DIMASZ
 40
0.1875
  9
$DIMEXO
 40
0.0625
  9
$DIMDLI
 40
0.4443307087
  9
$DIMRND
 40
0.0
  9
$DIMDLE
 40
0.0
  9
$DIMEXE
 40
0.125
  9
$DIMTP
 40
0.01
  9
$DIMTM
 40
0.01
  9
$DIMTXT
 40
1.0
  9
$DIMCEN
 40
0.1052362205
  9
$DIMTSZ
 40
0.0
  9
$DIMTOL
 70
     1
  9
$DIMLIM
 70
     0
  9
$DIMTIH
 70
     1
  9
$DIMTOH
 70
     1
  9
$DIMSE1
 70
     0
  9
$DIMSE2
 70
     0
  9
$DIMTAD
 70
     0
  9
$DIMZIN
 70
     0
  9
$DIMBLK
  1

  9
$DIMASO
 70
     1
  9
$DIMSHO
 70
     1
  9
$DIMPOST
  1
\X
  9
$DIMAPOST
  1

  9
$DIMALT
 70
     1
  9
$DIMALTD
 70
     2
  9
$DIMALTF
 40
25.3999999999999986
  9
$DIMLFAC
 40
1.0
  9
$DIMTOFL
 70
     0
  9
$DIMTVP
 40
0.0
  9
$DIMTIX
 70
     0
  9
$DIMSOXD
 70
     0
  9
$DIMSAH
 70
     0
  9
$DIMBLK1
  1

  9
$DIMBLK2
  1

  9
$DIMSTYLE
  2
STANDARD
  9
$DIMCLRD
 70
     0
  9
$DIMCLRE
 70
     0
  9
$DIMCLRT
 70
     0
  9
$DIMTFAC
 40
1.0
  9
$DIMGAP
 40
0.09
  9
$LUNITS
 70
     2
  9
$LUPREC
 70
     4
  9
$SKETCHINC
 40
0.1
  9
$FILLETRAD
 40
0.0
  9
$AUNITS
 70
     0
  9
$AUPREC
 70
     0
  9
$MENU
  1
.
  9
$ELEVATION
 40
0.0
  9
$PELEVATION
 40
0.0
  9
$THICKNESS
 40
0.0
  9
$LIMCHECK
 70
     0
  9
$BLIPMODE
 70
     0
  9
$CHAMFERA
 40
0.0
  9
$CHAMFERB
 40
0.0
  9
$SKPOLY
 70
     0
  9
$TDCREATE
 40
2458267.4656481482088566
  9
$TDUPDATE
 40
2460725.7008333331905305
  9
$TDINDWG
 40
0.1961949537
  9
$TDUSRTIMER
 40
0.1961949537
  9
$USRTIMER
 70
     1
  9
$ANGBASE
 50
0.0
  9
$ANGDIR
 70
     0
  9
$PDMODE
 70
     0
  9
$PDSIZE
 40
0.3125
  9
$PLINEWID
 40
0.0
  9
$COORDS
 70
     1
  9
$SPLFRAME
 70
     0
  9
$SPLINETYPE
 70
     6
  9
$SPLINESEGS
 70
     8
  9
$ATTDIA
 70
     1
  9
$ATTREQ
 70
     1
  9
$HANDLING
 70
     1
  9
$HANDSEED
  5
1F09
  9
$SURFTAB1
 70
     6
  9
$SURFTAB2
 70
     6
  9
$SURFTYPE
 70
     6
  9
$SURFU
 70
     6
  9
$SURFV
 70
     6
  9
$UCSNAME
  2

  9
$UCSORG
 10
0.0
 20
0.0
 30
0.0
  9
$UCSXDIR
 10
1.0
 20
0.0
 30
0.0
  9
$UCSYDIR
 10
0.0
 20
1.0
 30
0.0
  9
$PUCSNAME
  2

  9
$PUCSORG
 10
0.0
 20
0.0
 30
0.0
  9
$PUCSXDIR
 10
1.0
 20
0.0
 30
0.0
  9
$PUCSYDIR
 10
0.0
 20
1.0
 30
0.0
  9
$USERI1
 70
     0
  9
$USERI2
 70
     0
  9
$USERI3
 70
     0
  9
$USERI4
 70
     0
  9
$USERI5
 70
     0
  9
$USERR1
 40
0.0
  9
$USERR2
 40
0.0
  9
$USERR3
 40
0.0
  9
$USERR4
 40
0.0
  9
$USERR5
 40
0.0
  9
$WORLDVIEW
 70
     1
  9
$SHADEDGE
 70
     3
  9
$SHADEDIF
 70
    70
  9
$TILEMODE
 70
     1
  9
$MAXACTVP
 70
    64
  9
$PLIMCHECK
 70
     0
  9
$PEXTMIN
 10
1.0000000000000000E+20
 20
1.0000000000000000E+20
 30
1.0000000000000000E+20
  9
$PEXTMAX
 10
-1.0000000000000000E+20
 20
-1.0000000000000000E+20
 30
-1.0000000000000000E+20
  9
$PLIMMIN
 10
0.0
 20
0.0
  9
$PLIMMAX
 10
12.0
 20
9.0
  9
$UNITMODE
 70
     0
  9
$VISRETAIN
 70
     1
  9
$PLINEGEN
 70
     0
  9
$PSLTSCALE
 70
     1
  0
ENDSEC
  0
SECTION
  2
TABLES
  0
TABLE
  2
VPORT
 70
     1
  0
VPORT
  2
*ACTIVE
 70
     0
 10
0.0
 20
0.0
 11
1.0
 21
1.0
 12
189.4709838524626093
 22
-1.960651675167866
 13
0.0
 23
0.0
 14
1.0
 24
1.0
 15
0.0
 25
0.0
 16
-0.0000000000000142
 26
0.0
 36
62.9619509154070727
 17
101.9853744506835938
 27
9.8121274927709443
 37
0.0
 40
5.8469340161833179
 41
2.1449438202247189
 42
50.0
 43
0.0
 44
0.0
 50
0.0
 51
0.0
 71
     0
 72
   100
 73
     1
 74
     1
 75
     0
 76
     0
 77
     0
 78
     0
  0
ENDTAB
  0
TABLE
  2
LTYPE
 70
     2
  0
LTYPE
  2
CONTINUOUS
 70
     0
  3
Solid line
 72
    65
 73
     0
 40
0.0
  0
LTYPE
  2
PHANTOM2
 70
     0
  3
___ _ _ ___ _ _ ___ _ _ ___ _ _
 72
    65
 73
     6
 40
1.25
 49
0.625
 49
-0.125
 49
0.125
 49
-0.125
 49
0.125
 49
-0.125
  0
ENDTAB
  0
TABLE
  2
LAYER
 70
     2
  0
LAYER
  2
0
 70
     0
 62
   255
  6
CONTINUOUS
  0
LAYER
  2
DEFPOINTS
 70
     0
 62
     7
  6
CONTINUOUS
  0
ENDTAB
  0
TABLE
  2
STYLE
 70
     1
  0
STYLE
  2
STANDARD
 70
     0
 40
0.0
 41
0.8
 50
0.0
 71
     0
 42
0.2
  3
txt
  4

  0
ENDTAB
  0
TABLE
  2
VIEW
 70
     0
  0
ENDTAB
  0
TABLE
  2
UCS
 70
     0
  0
ENDTAB
  0
TABLE
  2
APPID
 70
     9
  0
APPID
  2
ACAD
 70
     0
  0
APPID
  2
ACAD_MLEADERVER
 70
     0
  0
APPID
  2
ACAD_EXEMPT_FROM_CAD_STANDARDS
 70
     0
  0
APPID
  2
ACAD_DSTYLE_DIMJAG
 70
     0
  0
APPID
  2
ACAD_DSTYLE_DIMTALN
 70
     0
  0
APPID
  2
ACAD_NAV_VCDISPLAY
 70
     0
  0
APPID
  2
ACAECLAYERSTANDARD
 70
     0
  0
APPID
  2
ACCMTRANSPARENCY
 70
     0
  0
APPID
  2
ACDBATTR
 70
     0
  0
ENDTAB
  0
TABLE
  2
DIMSTYLE
 70
     1
  0
DIMSTYLE
  2
STANDARD
 70
     0
  3

  4

  5

  6

  7

 40
1.0
 41
0.1875
 42
0.0625
 43
0.38
 44
0.125
 45
0.0
 46
0.0
 47
0.01
 48
0.01
140
0.15625
141
0.09
142
0.0
143
25.3999999999999986
144
1.0
145
0.0
146
1.0
147
0.09
 71
     1
 72
     0
 73
     1
 74
     1
 75
     0
 76
     0
 77
     0
 78
     4
170
     0
171
     2
172
     0
173
     0
174
     0
175
     0
176
     0
177
     0
178
     0
  0
ENDTAB
  0
ENDSEC
  0
SECTION
  2
BLOCKS
  0
BLOCK
  8
0
  2
$MODEL_SPACE
 70
     0
 10
0.0
 20
0.0
 30
0.0
  3
$MODEL_SPACE
  1

  0
ENDBLK
  5
21
  8
0
  0
BLOCK
 67
     1
  8
0
  2
$PAPER_SPACE
 70
     0
 10
0.0
 20
0.0
 30
0.0
  3
$PAPER_SPACE
  1

  0
ENDBLK
  5
1D
 67
     1
  8
0
  0
BLOCK
  8
0
  2
_FILLED
 70
     0
 10
0.0
 20
0.0
 30
0.0
  3
_FILLED
  1

  0
SOLID
  5
1619
  8
0
  6
BYBLOCK
 62
     0
 10
0.0
 20
0.0
 30
0.0
 11
-1.0
 21
0.1666666667
 31
0.0
 12
-1.0
 22
-0.1666666667
 32
0.0
 13
-1.0
 23
-0.1666666667
 33
0.0
  0
ENDBLK
  5
161A
  8
0
  6
BYBLOCK
 62
     0
  0
ENDSEC
  0
SECTION
  2
ENTITIES
  0
ATTDEF
  5
D4F
  8
DEFPOINTS
 10
293.6548137372396923
 20
8.0976339332851683
 30
0.0
 40
0.001
  1
P34590-BN
  3

  2
MODELNUMBER
 70
     0
1001
ACDBATTR
1070
     0
1070
     1
  0
ATTDEF
  5
D50
  8
DEFPOINTS
 10
293.6548137372396923
 20
8.0959672666185032
 30
0.0
 40
0.001
  1
VICE
  3

  2
TRADENAME
 70
     0
1001
ACDBATTR
1070
     0
1070
     1
  0
ATTDEF
  5
D51
  8
DEFPOINTS
 10
293.6548137372396923
 20
8.094300599951838
 30
0.0
 40
0.001
  1
VALVE TRIM
  3

  2
PRODUCT
 70
     0
1001
ACDBATTR
1070
     0
1070
     1
  0
LINE
  5
1CD1
  8
0
 10
289.8548848834462888
 20
8.0975793040162873
 30
0.0
 11
291.3096880330463136
 21
8.0975793040162873
 31
0.0
  0
LINE
  5
1CD2
  8
0
 10
293.6544912015463069
 20
10.7550596190162899
 30
0.0
 11
293.6544912015463069
 21
5.4400989890162883
 31
0.0
  0
LINE
  5
1CD3
  8
0
 10
293.1034912015463192
 20
10.7550596190162899
 30
0.0
 11
293.6544912015463069
 21
10.7550596190162899
 31
0.0
  0
LINE
  5
1CD4
  8
0
 10
293.0444912015462933
 20
10.69605961901628
 30
0.0
 11
293.0444912015462933
 21
5.4990989890162894
 31
0.0
  0
LINE
  5
1CD5
  8
0
 10
293.2660670131141956
 20
10.7404149580841501
 30
0.0
 11
293.0591358624956229
 21
10.5334838075654993
 31
0.0
  0
ARC
  5
1CD6
  8
0
 10
293.301422352164991
 20
10.7050596190162803
 30
0.0
 40
0.05
 50
90.0
 51
134.9999999861539095
  0
ARC
  5
1CD7
  8
0
 10
293.1034912015463192
 20
10.69605961901628
 30
0.0
 40
0.059
 50
90.0
 51
179.9999999999990905
  0
ARC
  5
1CD8
  8
0
 10
293.0944912015463046
 20
10.4981284684976295
 30
0.0
 40
0.05
 50
134.9999999861452125
 51
180.0000000000017906
  0
LINE
  5
1CD9
  8
0
 10
293.301422352164991
 20
10.7550596190162899
 30
0.0
 11
293.301422352164991
 21
5.4400989890162883
 31
0.0
  0
LINE
  5
1CDA
  8
0
 10
292.0002392330462726
 20
9.140571430016287
 30
0.0
 11
292.0002392330462726
 21
7.0545871780162841
 31
0.0
  0
LINE
  5
1CDB
  8
0
 10
291.9702392141463179
 20
9.1505714300162886
 30
0.0
 11
291.9702392141463179
 21
7.044587178016287
 31
0.0
  0
LINE
  5
1CDC
  8
0
 10
291.960239214146327
 20
9.1605714300162866
 30
0.0
 11
291.4671130769614251
 21
9.1605714300162866
 31
0.0
  0
ARC
  5
1CDD
  8
0
 10
291.4671130769614251
 20
9.1211714300162878
 30
0.0
 40
0.0394
 50
90.0
 51
163.3007557629734094
  0
LINE
  5
1CDE
  8
0
 10
292.0202392330463113
 20
9.1605714300162866
 30
0.0
 11
293.0444912015462933
 21
9.1605714300162866
 31
0.0
  0
LINE
  5
1CDF
  8
0
 10
291.3196880330464182
 20
8.7464697742700181
 30
0.0
 11
291.3196880330464182
 21
7.4486888337625548
 31
0.0
  0
ARC
  5
1CE0
  8
0
 10
291.3096880330463136
 20
8.0875793040162876
 30
0.0
 40
0.01
 50
0.0
 51
90.0
  0
ARC
  5
1CE1
  8
0
 10
291.3096880330463136
 20
7.7602485953162867
 30
0.0
 40
0.01
 50
270.0
 51
0.0
  0
LINE
  5
1CE2
  8
0
 10
291.9702392141463179
 20
8.767579285116291
 30
0.0
 11
291.9826656396729163
 21
8.780005710499557
 31
0.0
  0
ARC
  5
1CE3
  8
0
 10
291.9402392330463272
 20
8.8224321176153744
 30
0.0
 40
0.06
 50
314.9999996696449216
 51
0.0
  0
ARC
  5
1CE4
  8
0
 10
292.0202392330463113
 20
9.1405714300162906
 30
0.0
 40
0.02
 50
89.9999999999934914
 51
180.0000000000075033
  0
ARC
  5
1CE5
  8
0
 10
291.960239214146327
 20
9.1505714300162886
 30
0.0
 40
0.01
 50
0.0
 51
90.0000000000097771
  0
LINE
  5
1CE6
  8
0
 10
291.3255501794026827
 20
8.7864111303707766
 30
0.0
 11
291.4293747213242796
 21
9.1324929367095997
 31
0.0
  0
ARC
  5
1CE7
  8
0
 10
291.4586880330462009
 20
8.7464697742700181
 30
0.0
 40
0.139
 50
163.3007557629653945
 51
180.0000000000048885
  0
LINE
  5
1CE8
  8
0
 10
291.4293747213242796
 20
9.1324929367096015
 30
0.0
 11
291.4293747213242796
 21
7.0626656713229741
 31
0.0
  0
LINE
  5
1CE9
  8
0
 10
293.1034912015463192
 20
5.4400989890162883
 30
0.0
 11
293.6544912015463069
 21
5.4400989890162883
 31
0.0
  0
LINE
  5
1CEA
  8
0
 10
293.2660670131141956
 20
5.4547436499484183
 30
0.0
 11
293.0591358624956229
 21
5.6616748004670736
 31
0.0
  0
ARC
  5
1CEB
  8
0
 10
293.301422352164991
 20
5.4900989890162917
 30
0.0
 40
0.05
 50
225.0000000138460905
 51
270.0
  0
ARC
  5
1CEC
  8
0
 10
293.1034912015463192
 20
5.4990989890162894
 30
0.0
 40
0.059
 50
180.0000000000005969
 51
270.0
  0
ARC
  5
1CED
  8
0
 10
293.0944912015463046
 20
5.6970301395349434
 30
0.0
 40
0.05
 50
179.9999999999978968
 51
225.0000000138547023
  0
LINE
  5
1CEE
  8
0
 10
291.960239214146327
 20
7.0345871780162881
 30
0.0
 11
291.4671130769614251
 21
7.0345871780162881
 31
0.0
  0
ARC
  5
1CEF
  8
0
 10
291.4671130769614251
 20
7.0739871780162868
 30
0.0
 40
0.0394
 50
196.6992442370263916
 51
270.0
  0
LINE
  5
1CF0
  8
0
 10
292.0202392330463113
 20
7.0345871780162881
 30
0.0
 11
293.0444912015462933
 21
7.0345871780162881
 31
0.0
  0
LINE
  5
1CF1
  8
0
 10
291.9702392141463179
 20
7.4275793229162836
 30
0.0
 11
291.9826656396729163
 21
7.4151528975330177
 31
0.0
  0
ARC
  5
1CF2
  8
0
 10
291.9402392330463272
 20
7.3727264904172012
 30
0.0
 40
0.06
 50
0.0
 51
45.00000033035505
  0
ARC
  5
1CF3
  8
0
 10
292.0202392330463113
 20
7.0545871780162841
 30
0.0
 40
0.02
 50
179.9999999999922977
 51
270.0000000000032969
  0
ARC
  5
1CF4
  8
0
 10
291.960239214146327
 20
7.044587178016287
 30
0.0
 40
0.01
 50
269.9999999999902229
 51
0.0
  0
LINE
  5
1CF5
  8
0
 10
291.3255501794026827
 20
7.4087474776617981
 30
0.0
 11
291.4293747213242796
 21
7.062665671322975
 31
0.0
  0
ARC
  5
1CF6
  8
0
 10
291.4586880330462009
 20
7.4486888337625548
 30
0.0
 40
0.139
 50
179.9999999999949125
 51
196.6992442370344065
  0
LINE
  5
1CF7
  8
0
 10
291.3096880330463136
 20
8.5975793040162891
 30
0.0
 11
290.3238307444690918
 21
8.5975793040162891
 31
0.0
  0
ARC
  5
1CF8
  8
0
 10
291.3096880330463136
 20
8.5875793040162876
 30
0.0
 40
0.01
 50
0.0000000000050889
 51
89.9999999999902229
  0
LINE
  5
1CF9
  8
0
 10
289.7449951196463189
 20
8.5894690678162888
 30
0.0
 11
289.9027029771460775
 21
8.5894690678162888
 31
0.0
  0
LINE
  5
1CFA
  8
0
 10
290.1339821782758008
 20
8.5894690678162888
 30
0.0
 11
290.2749486752791768
 21
8.5894690678162888
 31
0.0
  0
LINE
  5
1CFB
  8
0
 10
289.3124105554463199
 20
8.0975396158159221
 30
0.0
 11
289.3124105554463199
 21
7.7050379977741752
 31
0.0
  0
LINE
  5
1CFC
  8
0
 10
289.2529951196463003
 20
8.0974690678162862
 30
0.0
 11
289.2529951196463003
 21
7.9401036152162829
 31
0.0
  0
LINE
  5
1CFD
  8
0
 10
289.2529951196463003
 20
7.708113596062514
 30
0.0
 11
289.2529951196463003
 21
7.5700646991268474
 31
0.0
  0
ARC
  5
1CFE
  8
0
 10
289.7449951196463189
 20
8.0974690678162862
 30
0.0
 40
0.492
 50
90.0
 51
179.9999999999998863
  0
ARC
  5
1CFF
  8
0
 10
290.132681420461779
 20
8.8683331978456295
 30
0.0
 40
0.3384764562654566
 50
271.8835155723324988
 51
286.2931051558755939
  0
ARC
  5
1D00
  8
0
 10
290.1407005876857852
 20
8.839055589639603
 30
0.0
 40
0.3081253106238184
 50
286.3891962143015917
 51
297.793481000844281
  0
ARC
  5
1D01
  8
0
 10
290.2521348078990968
 20
8.6276434829929194
 30
0.0
 40
0.0691427500229878
 50
297.7934810008445083
 51
316.1079224705126194
  0
ARC
  5
1D02
  8
0
 10
284.1132318190823867
 20
12.1600980817209994
 30
0.0
 40
7.1497963572629581
 50
329.9491561735416099
 51
330.0219535512591733
  0
ARC
  5
1D03
  8
0
 10
290.3238307444690918
 20
8.5775793040162895
 30
0.0
 40
0.02
 50
90.0
 51
150.0219535512617028
  0
ARC
  5
1D04
  8
0
 10
290.2705500648008865
 20
8.5690815492065902
 30
0.0
 40
0.0208566221905768
 50
4.4318520398328207
 51
77.8250439767133599
  0
LINE
  5
1D05
  8
0
 10
290.2923599039706914
 20
7.750248595316287
 30
0.0
 11
291.3096880330463136
 21
7.750248595316287
 31
0.0
  0
LINE
  5
1D06
  8
0
 10
290.219527905508528
 20
7.7200805937785031
 30
0.0
 11
290.122383593584118
 21
7.6229362818540771
 31
0.0
  0
ARC
  5
1D07
  8
0
 10
290.2923599039706914
 20
7.6472485953162801
 30
0.0
 40
0.103
 50
90.0
 51
134.9999999999963904
  0
LINE
  5
1D08
  8
0
 10
290.0922155920462728
 20
7.5501042833918621
 30
0.0
 11
290.0922155920462728
 21
6.3914376306989
 31
0.0
  0
ARC
  5
1D09
  8
0
 10
290.0872155920462774
 20
6.3914376306989
 30
0.0
 40
0.005
 50
224.9997161544654034
 51
0.0
  0
ARC
  5
1D0A
  8
0
 10
290.1952155920462815
 20
7.5501042833918577
 30
0.0
 40
0.103
 50
135.0000000000011084
 51
179.9999999999980105
  0
LINE
  5
1D0B
  8
0
 10
291.3095630744214759
 20
7.8417644864140001
 30
0.0
 11
290.2416412652922872
 21
7.855110132460946
 31
0.0
  0
LINE
  5
1D0C
  8
0
 10
290.180475040580518
 20
7.8302208453504942
 30
0.0
 11
290.0122433421121855
 21
7.6619891468821519
 31
0.0
  0
LINE
  5
1D0D
  8
0
 10
289.9873540550017879
 20
7.6008229221712824
 30
0.0
 11
289.9891871385809168
 21
6.494475382501891
 31
0.0
  0
ARC
  5
1D0E
  8
0
 10
289.984187145444082
 20
6.4944670981201877
 30
0.0
 40
0.005
 50
224.9997161544654034
 51
0.0949320649314674
  0
ARC
  5
1D0F
  8
0
 10
291.3096880330463136
 20
7.8517637056506233
 30
0.0
 40
0.01
 50
269.284021184682274
 51
0.0000000000101778
  0
ARC
  5
1D10
  8
0
 10
290.2405791169813938
 20
7.7701167689496469
 30
0.0
 40
0.085
 50
89.2840211846725254
 51
135.0000000000046043
  0
ARC
  5
1D11
  8
0
 10
290.0723474185131181
 20
7.6018850704813001
 30
0.0
 40
0.085
 50
135.0000000000009095
 51
180.7159788147172037
  0
LINE
  5
1D12
  8
0
 10
289.7448848834462751
 20
7.987579304016287
 30
0.0
 11
289.7448848834462751
 21
6.7612964324910179
 31
0.0
  0
ARC
  5
1D13
  8
0
 10
289.8548848834462888
 20
7.987579304016287
 30
0.0
 40
0.11
 50
90.0
 51
179.9999999999994884
  0
ARC
  5
1D14
  8
0
 10
291.3096880330463136
 20
8.1075793040162907
 30
0.0
 40
0.01
 50
270.0
 51
359.9999999999873239
  0
LINE
  5
1D15
  8
0
 10
291.3096880330463136
 20
8.1994815452162886
 30
0.0
 11
289.7349826422462797
 21
8.1994815452162886
 31
0.0
  0
ARC
  5
1D16
  8
0
 10
291.3096880330463136
 20
8.2094815452162884
 30
0.0
 40
0.01
 50
270.0000000000097771
 51
0.0
  0
LINE
  5
1D17
  8
0
 10
289.6429826422464089
 20
8.1074815452162881
 30
0.0
 11
289.6429826422464089
 21
6.9008921078669712
 31
0.0
  0
ARC
  5
1D18
  8
0
 10
289.7349826422462797
 20
8.1074815452162881
 30
0.0
 40
0.092
 50
90.0
 51
179.9999999999996874
  0
LINE
  5
1D19
  8
0
 10
289.2448849564102034
 20
7.5186164535799369
 30
0.0
 11
289.2448849564102034
 21
5.0822374969850301
 31
0.0
  0
ARC
  5
1D1A
  8
0
 10
289.175306716783723
 20
7.6183056288380859
 30
0.0
 40
0.1173139085115077
 50
318.7698799552388209
 51
337.3395189679102941
  0
ARC
  5
1D1B
  8
0
 10
288.9834863936574152
 20
7.7080351566851464
 30
0.0
 40
0.3290169432445554
 50
335.7894241159049216
 51
344.3213696778150279
  0
ARC
  5
1D1C
  8
0
 10
288.9800683937733083
 20
7.7081289798701169
 30
0.0
 40
0.3323341680138208
 50
344.4650432675388174
 51
352.9376295783640103
  0
ARC
  5
1D1D
  8
0
 10
288.9158990226206924
 20
7.7126232686595637
 30
0.0
 40
0.396584079355398
 50
353.4330945939889261
 51
358.9040646530035019
  0
ARC
  5
1D1E
  8
0
 10
288.5311553052964086
 20
8.7857959297190469
 30
0.0
 40
1.4442755975811561
 50
300.0719497897006818
 51
300.4702725251891025
  0
ARC
  5
1D1F
  8
0
 10
289.2648849564101283
 20
7.5186164535799387
 30
0.0
 40
0.02
 50
120.071949789703794
 51
180.0000000000061107
  0
ARC
  5
1D20
  8
0
 10
289.2730292009608775
 20
7.5711724727926049
 30
0.0
 40
0.0200646848121733
 50
183.1649161408101065
 51
265.6530053910028073
  0
LINE
  5
1D21
  8
0
 10
289.6991009829710038
 20
6.765410448591628
 30
0.0
 11
290.2308258167432768
 21
6.2336856148193327
 31
0.0
  0
ARC
  5
1D22
  8
0
 10
289.8454848834463178
 20
6.7612964324910179
 30
0.0
 40
0.1006
 50
179.9999999999988063
 51
225.000000000000199
  0
ARC
  5
1D23
  8
0
 10
289.8345826422462892
 20
6.9008921078669738
 30
0.0
 40
0.1916
 50
180.0000000000007958
 51
224.9999999999994031
  0
LINE
  5
1D24
  8
0
 10
290.0836800406253246
 20
6.3879021143081847
 30
0.0
 11
289.7750525241725086
 21
6.6965326886817564
 31
0.0
  0
ARC
  5
1D25
  8
0
 10
289.8478848834462838
 20
6.7693643263305061
 30
0.0
 40
0.103
 50
180.0000000000007105
 51
224.9997161544646929
  0
LINE
  5
1D26
  8
0
 10
290.2448846912462841
 20
6.1997444893223781
 30
0.0
 11
290.2448846912462841
 21
5.0822298731488349
 31
0.0
  0
ARC
  5
1D27
  8
0
 10
290.1968846912462823
 20
6.1997444893223763
 30
0.0
 40
0.048
 50
0.0000000000034604
 51
44.9999999999989626
  0
LINE
  5
1D28
  8
0
 10
289.3791494485789144
 20
4.9479730048162871
 30
0.0
 11
290.1106278229137843
 21
4.9479730048162871
 31
0.0
  0
LINE
  5
1D29
  8
0
 10
289.3515722841125921
 20
4.9593958403500098
 30
0.0
 11
289.2563077919439252
 21
5.0546603325187531
 31
0.0
  0
LINE
  5
1D2A
  8
0
 10
290.1382049873799929
 20
4.9593958403500098
 30
0.0
 11
290.2334618557126191
 21
5.054652708682557
 31
0.0
  0
ARC
  5
1D2B
  8
0
 10
289.3791494485789144
 20
4.986973004816277
 30
0.0
 40
0.039
 50
224.9999999999949978
 51
270.0000000000032969
  0
ARC
  5
1D2C
  8
0
 10
290.1106278229137843
 20
4.986973004816277
 30
0.0
 40
0.039
 50
269.9999999999902229
 51
314.9999999999998863
  0
ARC
  5
1D2D
  8
0
 10
290.2058846912462968
 20
5.0822298731488331
 30
0.0
 40
0.039
 50
314.9999999999951115
 51
0.0000000000040711
  0
ARC
  5
1D2E
  8
0
 10
289.2838849564100769
 20
5.0822374969850257
 30
0.0
 40
0.039
 50
179.9999999999944009
 51
225.0000000000135003
  0
LINE
  5
1D2F
  8
0
 10
289.2563077919439252
 20
5.0546603325187531
 30
0.0
 11
290.2334694774418153
 21
5.0546603325187531
 31
0.0
  0
LINE
  5
1D30
  8
0
 10
290.1438063385976989
 20
8.5300396158159213
 30
0.0
 11
289.7449105554463245
 21
8.5300396158159213
 31
0.0
  0
ARC
  5
1D31
  8
0
 10
289.7449105554463245
 20
8.0975396158159221
 30
0.0
 40
0.4325000000000001
 50
90.0
 51
180.0
  0
ARC
  5
1D33
  8
0
 10
290.0183425777108823
 20
9.0675940271977371
 30
0.0
 40
0.4919105548799607
 50
256.4035095858233149
 51
283.5964904141766851
  0
LINE
  5
1D34
  8
0
 10
290.0048844267462869
 20
6.466698072616289
 30
0.0
 11
290.0048844267462869
 21
6.4596270048162863
 31
0.0
  0
LINE
  5
1D35
  8
0
 10
289.9564217755464028
 20
6.5151607238162876
 30
0.0
 11
289.9584928433462778
 21
6.5060185881162891
 31
0.0
  0
ARC
  5
1D36
  8
0
 10
288.7727957215037122
 20
7.824108605639398
 30
0.0
 40
0.4940104292656881
 50
346.4200038798272772
 51
13.5799961201738704
  0
ENDSEC
  0
EOF
