  0
SECTION
  2
HEADER
  9
$ACADVER
  1
AC1009
  9
$INSBASE
 10
284.1191655774882179
 20
7.2799817675855234
 30
0.0
  9
$EXTMIN
 10
281.455405479424428
 20
4.1303231057928862
 30
-0.0000000349181948
  9
$EXTMAX
 10
286.7941220501655835
 20
9.938068672668475
 30
0.0000000814935746
  9
$LIMMIN
 10
0.0
 20
0.0
  9
$LIMMAX
 10
11.6929133858000007
 20
8.2677165353999982
  9
$ORTHOMODE
 70
     0
  9
$REGENMODE
 70
     1
  9
$FILLMODE
 70
     1
  9
$QTEXTMODE
 70
     0
  9
$MIRRTEXT
 70
     0
  9
$DRAGMODE
 70
     2
  9
$LTSCALE
 40
0.6431102362
  9
$OSMODE
 70
  4095
  9
$ATTMODE
 70
     1
  9
$TEXTSIZE
 40
0.2
  9
$TRACEWID
 40
0.05
  9
$TEXTSTYLE
  7
STANDARD
  9
$CLAYER
  8
0
  9
$CELTYPE
  6
BYLAYER
  9
$CECOLOR
 62
   256
  9
$DIMSCALE
 40
1.0
  9
$DIMASZ
 40
0.1875
  9
$DIMEXO
 40
0.0625
  9
$DIMDLI
 40
0.4443307087
  9
$DIMRND
 40
0.0
  9
$DIMDLE
 40
0.0
  9
$DIMEXE
 40
0.125
  9
$DIMTP
 40
0.01
  9
$DIMTM
 40
0.01
  9
$DIMTXT
 40
1.0
  9
$DIMCEN
 40
0.1052362205
  9
$DIMTSZ
 40
0.0
  9
$DIMTOL
 70
     1
  9
$DIMLIM
 70
     0
  9
$DIMTIH
 70
     1
  9
$DIMTOH
 70
     1
  9
$DIMSE1
 70
     0
  9
$DIMSE2
 70
     0
  9
$DIMTAD
 70
     0
  9
$DIMZIN
 70
     0
  9
$DIMBLK
  1

  9
$DIMASO
 70
     1
  9
$DIMSHO
 70
     1
  9
$DIMPOST
  1
\X
  9
$DIMAPOST
  1

  9
$DIMALT
 70
     1
  9
$DIMALTD
 70
     2
  9
$DIMALTF
 40
25.3999999999999986
  9
$DIMLFAC
 40
1.0
  9
$DIMTOFL
 70
     0
  9
$DIMTVP
 40
0.0
  9
$DIMTIX
 70
     0
  9
$DIMSOXD
 70
     0
  9
$DIMSAH
 70
     0
  9
$DIMBLK1
  1

  9
$DIMBLK2
  1

  9
$DIMSTYLE
  2
STANDARD
  9
$DIMCLRD
 70
     0
  9
$DIMCLRE
 70
     0
  9
$DIMCLRT
 70
     0
  9
$DIMTFAC
 40
1.0
  9
$DIMGAP
 40
0.09
  9
$LUNITS
 70
     2
  9
$LUPREC
 70
     4
  9
$SKETCHINC
 40
0.1
  9
$FILLETRAD
 40
0.0
  9
$AUNITS
 70
     0
  9
$AUPREC
 70
     0
  9
$MENU
  1
.
  9
$ELEVATION
 40
0.0
  9
$PELEVATION
 40
0.0
  9
$THICKNESS
 40
0.0
  9
$LIMCHECK
 70
     0
  9
$BLIPMODE
 70
     0
  9
$CHAMFERA
 40
0.0
  9
$CHAMFERB
 40
0.0
  9
$SKPOLY
 70
     0
  9
$TDCREATE
 40
2458267.4656481482088566
  9
$TDUPDATE
 40
2460725.6990856481716037
  9
$TDINDWG
 40
0.1974449537
  9
$TDUSRTIMER
 40
0.1974449537
  9
$USRTIMER
 70
     1
  9
$ANGBASE
 50
0.0
  9
$ANGDIR
 70
     0
  9
$PDMODE
 70
     0
  9
$PDSIZE
 40
0.3125
  9
$PLINEWID
 40
0.0
  9
$COORDS
 70
     1
  9
$SPLFRAME
 70
     0
  9
$SPLINETYPE
 70
     6
  9
$SPLINESEGS
 70
     8
  9
$ATTDIA
 70
     1
  9
$ATTREQ
 70
     1
  9
$HANDLING
 70
     1
  9
$HANDSEED
  5
1E34
  9
$SURFTAB1
 70
     6
  9
$SURFTAB2
 70
     6
  9
$SURFTYPE
 70
     6
  9
$SURFU
 70
     6
  9
$SURFV
 70
     6
  9
$UCSNAME
  2

  9
$UCSORG
 10
0.0
 20
0.0
 30
0.0
  9
$UCSXDIR
 10
1.0
 20
0.0
 30
0.0
  9
$UCSYDIR
 10
0.0
 20
1.0
 30
0.0
  9
$PUCSNAME
  2

  9
$PUCSORG
 10
0.0
 20
0.0
 30
0.0
  9
$PUCSXDIR
 10
1.0
 20
0.0
 30
0.0
  9
$PUCSYDIR
 10
0.0
 20
1.0
 30
0.0
  9
$USERI1
 70
     0
  9
$USERI2
 70
     0
  9
$USERI3
 70
     0
  9
$USERI4
 70
     0
  9
$USERI5
 70
     0
  9
$USERR1
 40
0.0
  9
$USERR2
 40
0.0
  9
$USERR3
 40
0.0
  9
$USERR4
 40
0.0
  9
$USERR5
 40
0.0
  9
$WORLDVIEW
 70
     1
  9
$SHADEDGE
 70
     3
  9
$SHADEDIF
 70
    70
  9
$TILEMODE
 70
     1
  9
$MAXACTVP
 70
    64
  9
$PLIMCHECK
 70
     0
  9
$PEXTMIN
 10
1.0000000000000000E+20
 20
1.0000000000000000E+20
 30
1.0000000000000000E+20
  9
$PEXTMAX
 10
-1.0000000000000000E+20
 20
-1.0000000000000000E+20
 30
-1.0000000000000000E+20
  9
$PLIMMIN
 10
0.0
 20
0.0
  9
$PLIMMAX
 10
12.0
 20
9.0
  9
$UNITMODE
 70
     0
  9
$VISRETAIN
 70
     1
  9
$PLINEGEN
 70
     0
  9
$PSLTSCALE
 70
     1
  0
ENDSEC
  0
SECTION
  2
TABLES
  0
TABLE
  2
VPORT
 70
     1
  0
VPORT
  2
*ACTIVE
 70
     0
 10
0.0
 20
0.0
 11
1.0
 21
1.0
 12
182.1393893141112983
 22
-2.7779316035402628
 13
0.0
 23
0.0
 14
1.0
 24
1.0
 15
0.0
 25
0.0
 16
-0.0000000000000142
 26
0.0
 36
62.9619509154070727
 17
101.9853744506835938
 27
9.8121274927709443
 37
0.0
 40
5.8476893041765363
 41
2.1449438202247189
 42
50.0
 43
0.0
 44
0.0
 50
0.0
 51
0.0
 71
     0
 72
   100
 73
     1
 74
     1
 75
     0
 76
     0
 77
     0
 78
     0
  0
ENDTAB
  0
TABLE
  2
LTYPE
 70
     2
  0
LTYPE
  2
CONTINUOUS
 70
     0
  3
Solid line
 72
    65
 73
     0
 40
0.0
  0
LTYPE
  2
PHANTOM2
 70
     0
  3
___ _ _ ___ _ _ ___ _ _ ___ _ _
 72
    65
 73
     6
 40
1.25
 49
0.625
 49
-0.125
 49
0.125
 49
-0.125
 49
0.125
 49
-0.125
  0
ENDTAB
  0
TABLE
  2
LAYER
 70
     2
  0
LAYER
  2
0
 70
     0
 62
   255
  6
CONTINUOUS
  0
LAYER
  2
DEFPOINTS
 70
     0
 62
     7
  6
CONTINUOUS
  0
ENDTAB
  0
TABLE
  2
STYLE
 70
     1
  0
STYLE
  2
STANDARD
 70
     0
 40
0.0
 41
0.8
 50
0.0
 71
     0
 42
0.2
  3
txt
  4

  0
ENDTAB
  0
TABLE
  2
VIEW
 70
     0
  0
ENDTAB
  0
TABLE
  2
UCS
 70
     0
  0
ENDTAB
  0
TABLE
  2
APPID
 70
     9
  0
APPID
  2
ACAD
 70
     0
  0
APPID
  2
ACAD_MLEADERVER
 70
     0
  0
APPID
  2
ACAD_EXEMPT_FROM_CAD_STANDARDS
 70
     0
  0
APPID
  2
ACAD_DSTYLE_DIMJAG
 70
     0
  0
APPID
  2
ACAD_DSTYLE_DIMTALN
 70
     0
  0
APPID
  2
ACAD_NAV_VCDISPLAY
 70
     0
  0
APPID
  2
ACAECLAYERSTANDARD
 70
     0
  0
APPID
  2
ACCMTRANSPARENCY
 70
     0
  0
APPID
  2
ACDBATTR
 70
     0
  0
ENDTAB
  0
TABLE
  2
DIMSTYLE
 70
     1
  0
DIMSTYLE
  2
STANDARD
 70
     0
  3

  4

  5

  6

  7

 40
1.0
 41
0.1875
 42
0.0625
 43
0.38
 44
0.125
 45
0.0
 46
0.0
 47
0.01
 48
0.01
140
0.15625
141
0.09
142
0.0
143
25.3999999999999986
144
1.0
145
0.0
146
1.0
147
0.09
 71
     1
 72
     0
 73
     1
 74
     1
 75
     0
 76
     0
 77
     0
 78
     4
170
     0
171
     2
172
     0
173
     0
174
     0
175
     0
176
     0
177
     0
178
     0
  0
ENDTAB
  0
ENDSEC
  0
SECTION
  2
BLOCKS
  0
BLOCK
  8
0
  2
$MODEL_SPACE
 70
     0
 10
0.0
 20
0.0
 30
0.0
  3
$MODEL_SPACE
  1

  0
ENDBLK
  5
21
  8
0
  0
BLOCK
 67
     1
  8
0
  2
$PAPER_SPACE
 70
     0
 10
0.0
 20
0.0
 30
0.0
  3
$PAPER_SPACE
  1

  0
ENDBLK
  5
1D
 67
     1
  8
0
  0
BLOCK
  8
0
  2
_FILLED
 70
     0
 10
0.0
 20
0.0
 30
0.0
  3
_FILLED
  1

  0
SOLID
  5
1619
  8
0
  6
BYBLOCK
 62
     0
 10
0.0
 20
0.0
 30
0.0
 11
-1.0
 21
0.1666666667
 31
0.0
 12
-1.0
 22
-0.1666666667
 32
0.0
 13
-1.0
 23
-0.1666666667
 33
0.0
  0
ENDBLK
  5
161A
  8
0
  6
BYBLOCK
 62
     0
  0
ENDSEC
  0
SECTION
  2
ENTITIES
  0
ATTDEF
  5
D4F
  8
DEFPOINTS
 10
284.1110651568108096
 20
7.2784970628248473
 30
0.0
 40
0.001
  1
P34590-BV
  3

  2
MODELNUMBER
 70
     0
1001
ACDBATTR
1070
     0
1070
     1
  0
ATTDEF
  5
D50
  8
DEFPOINTS
 10
284.1110651568108096
 20
7.2768303961581822
 30
0.0
 40
0.001
  1
VICE
  3

  2
TRADENAME
 70
     0
1001
ACDBATTR
1070
     0
1070
     1
  0
ATTDEF
  5
D51
  8
DEFPOINTS
 10
284.1110651568108096
 20
7.275163729491517
 30
0.0
 40
0.001
  1
VALVE TRIM
  3

  2
PRODUCT
 70
     0
1001
ACDBATTR
1070
     0
1070
     1
  0
LINE
  5
1BC5
  8
0
 10
286.0266169919881918
 20
9.9374620825855242
 30
0.0
 11
282.2117141629883008
 21
9.9374620825855242
 31
0.0
  0
LINE
  5
1BC6
  8
0
 10
284.4848721118556796
 20
4.1303754683855241
 30
0.0
 11
283.753459043120813
 21
4.1303754683855241
 31
0.0
  0
LINE
  5
1BC7
  8
0
 10
284.6077137684907257
 20
4.2370627960879892
 30
0.0
 11
283.6306173864858238
 21
4.2370627960879892
 31
0.0
  0
LINE
  5
1BC8
  8
0
 10
281.4617141629883008
 20
9.1874620825855224
 30
0.0
 11
281.4617141629883008
 21
5.3725014525855244
 31
0.0
  0
ARC
  5
1BC9
  8
0
 10
282.2117141629883008
 20
9.1874620825855224
 30
0.0
 40
0.75
 50
90.0
 51
179.9999999999998863
  0
LINE
  5
1BCA
  8
0
 10
286.0266169919881918
 20
4.6225014525855244
 30
0.0
 11
284.6191327630775163
 21
4.6225014525855244
 31
0.0
  0
LINE
  5
1BCB
  8
0
 10
283.6191983918989763
 20
4.6225014525855244
 30
0.0
 11
282.2117141629883008
 21
4.6225014525855244
 31
0.0
  0
ARC
  5
1BCC
  8
0
 10
282.2117141629883008
 20
5.3725014525855244
 30
0.0
 40
0.75
 50
180.0
 51
270.0
  0
LINE
  5
1BCD
  8
0
 10
281.7186453135882971
 20
9.1875309319854992
 30
0.0
 11
281.7186453135885245
 21
5.372432603185497
 31
0.0
  0
LINE
  5
1BCE
  8
0
 10
282.5480791172943782
 20
9.6805309319855244
 30
0.0
 11
282.2116453135881784
 21
9.6805309319855244
 31
0.0
  0
LINE
  5
1BCF
  8
0
 10
282.6991309847293792
 20
9.7587211321336742
 30
0.0
 11
282.7838006228412269
 21
9.8784620825855232
 31
0.0
  0
ARC
  5
1BD0
  8
0
 10
282.5480791172943782
 20
9.8655309319855267
 30
0.0
 40
0.185
 50
270.0
 51
324.735610297607991
  0
LINE
  5
1BD1
  8
0
 10
285.4545305321352089
 20
9.8784620825855232
 30
0.0
 11
282.7838006228412269
 21
9.8784620825855232
 31
0.0
  0
LINE
  5
1BD2
  8
0
 10
285.4545305321352089
 20
4.6815014525855254
 30
0.0
 11
284.6191321083711046
 21
4.6815014525855254
 31
0.0
  0
LINE
  5
1BD3
  8
0
 10
283.619199046605388
 20
4.6815014525855254
 30
0.0
 11
282.7838006228412269
 21
4.6815014525855254
 31
0.0
  0
LINE
  5
1BD4
  8
0
 10
282.5480791172943782
 20
4.8794326031855242
 30
0.0
 11
282.2116453135884058
 21
4.8794326031855242
 31
0.0
  0
LINE
  5
1BD5
  8
0
 10
282.7838006228412269
 20
4.6815014525855254
 30
0.0
 11
282.6991309847293792
 21
4.8012424030373833
 31
0.0
  0
ARC
  5
1BD6
  8
0
 10
282.5480791172943782
 20
4.694432603185521
 30
0.0
 40
0.185
 50
35.2643897023960093
 51
90.0
  0
ARC
  5
1BD7
  8
0
 10
282.2116453135881784
 20
9.1875309319855276
 30
0.0
 40
0.493
 50
90.0
 51
180.0000000000032117
  0
ARC
  5
1BD8
  8
0
 10
282.2116453135884058
 20
5.3724326031855254
 30
0.0
 40
0.493
 50
180.000000000003098
 51
270.0
  0
ARC
  5
1BD9
  8
0
 10
284.1191655774882179
 20
7.2800126727855243
 30
0.0
 40
0.491858858600001
 50
64.2732245754641411
 51
115.7267754245324056
  0
ARC
  5
1BDA
  8
0
 10
284.1191655774882179
 20
7.2800126727855243
 30
0.0
 40
0.4999690948000004
 50
16.0357451654253609
 51
163.9642548345746036
  0
ARC
  5
1BDB
  8
0
 10
283.8736726865486162
 20
7.6924003468823257
 30
0.0
 40
0.0200417325028305
 50
30.0498720692740697
 51
120.596355307074603
  0
ARC
  5
1BDC
  8
0
 10
284.1191655774882179
 20
7.2800126727855243
 30
0.0
 40
0.6488595650537197
 50
317.9752760678097729
 51
222.0247239321901134
  0
ARC
  5
1BDD
  8
0
 10
284.1191655774882179
 20
7.2800126727855243
 30
0.0
 40
0.6888009211544897
 50
314.4093704172278763
 51
225.590629582772209
  0
ARC
  5
1BDE
  8
0
 10
284.1191655774882179
 20
7.2800126727855243
 30
0.0
 40
1.034882727493311
 50
297.7595599949397069
 51
242.2404400050602931
  0
ARC
  5
1BDF
  8
0
 10
284.1191655774882179
 20
7.2800126727855243
 30
0.0
 40
1.062961220799999
 50
296.9658212817640788
 51
243.0341787182358075
  0
LINE
  5
1BE0
  8
0
 10
283.8943410237881722
 20
6.8929418336017232
 30
0.0
 11
283.8943410237881722
 21
7.7050981755269099
 31
0.0
  0
LINE
  5
1BE1
  8
0
 10
286.7766169919883055
 20
9.1874620825855224
 30
0.0
 11
286.7766169919883055
 21
5.3725014525855244
 31
0.0
  0
ARC
  5
1BE2
  8
0
 10
286.0266169919881918
 20
9.1874620825855224
 30
0.0
 40
0.75
 50
0.0000000000001018
 51
90.0
  0
ARC
  5
1BE3
  8
0
 10
286.0266169919881918
 20
5.3725014525855244
 30
0.0
 40
0.75
 50
270.0
 51
0.0
  0
LINE
  5
1BE4
  8
0
 10
286.5196858413883092
 20
9.1875309319854992
 30
0.0
 11
286.5196858413880818
 21
5.372432603185497
 31
0.0
  0
LINE
  5
1BE5
  8
0
 10
285.6902520376820007
 20
9.6805309319855244
 30
0.0
 11
286.0266858413883142
 21
9.6805309319855244
 31
0.0
  0
LINE
  5
1BE6
  8
0
 10
285.5392001702469997
 20
9.7587211321336742
 30
0.0
 11
285.4545305321352089
 21
9.8784620825855232
 31
0.0
  0
ARC
  5
1BE7
  8
0
 10
285.6902520376820007
 20
9.8655309319855267
 30
0.0
 40
0.185
 50
215.2643897023918953
 51
270.0
  0
LINE
  5
1BE8
  8
0
 10
285.6902520376820007
 20
4.8794326031855242
 30
0.0
 11
286.0266858413879731
 21
4.8794326031855242
 31
0.0
  0
LINE
  5
1BE9
  8
0
 10
285.4545305321352089
 20
4.6815014525855254
 30
0.0
 11
285.5392001702469997
 21
4.8012424030373833
 31
0.0
  0
ARC
  5
1BEA
  8
0
 10
285.6902520376820007
 20
4.694432603185521
 30
0.0
 40
0.185
 50
90.0
 51
144.735610297604012
  0
ARC
  5
1BEB
  8
0
 10
286.0266858413883142
 20
9.1875309319855276
 30
0.0
 40
0.493
 50
359.9999999999965894
 51
90.0
  0
ARC
  5
1BEC
  8
0
 10
286.0266858413879731
 20
5.3724326031855254
 30
0.0
 40
0.493
 50
270.0
 51
359.9999999999968168
  0
LINE
  5
1BED
  8
0
 10
283.6371563453614044
 20
7.4075151372571444
 30
0.0
 11
283.6371563453614044
 21
7.4058047442051418
 31
0.0
  0
LINE
  5
1BEE
  8
0
 10
283.6371563453614044
 20
7.306096673653883
 30
0.0
 11
283.6371563453614044
 21
6.0601466363069179
 31
0.0
  0
ARC
  5
1BEF
  8
0
 10
283.6755563453613149
 20
7.4075151372571533
 30
0.0
 40
0.0384
 50
163.9642548345316868
 51
180.0000000000125056
  0
ARC
  5
1BF0
  8
0
 10
282.9656391875502095
 20
7.3756946788822271
 30
0.0
 40
0.6721918693859938
 50
0.0095243957867982
 51
2.56735790748135
  0
ARC
  5
1BF1
  8
0
 10
280.0971253830310275
 20
7.3752178399024961
 30
0.0
 40
3.540705713538133
 50
358.8814086752810226
 51
0.0095243957867982
  0
LINE
  5
1BF2
  8
0
 10
283.6192121674076247
 20
5.8639051668823763
 30
0.0
 11
283.6191944208167115
 21
4.2646405234640863
 31
0.0
  0
ARC
  5
1BF3
  8
0
 10
282.9613918154554995
 20
6.0777784988802024
 30
0.0
 40
0.6759945136291891
 50
352.5455222252260228
 51
358.5053933559624966
  0
ARC
  5
1BF4
  8
0
 10
279.0787791232012864
 20
6.595357201142467
 30
0.0
 40
4.5929519812848651
 50
351.786380329316728
 51
352.4272598021938165
  0
ARC
  5
1BF5
  8
0
 10
284.1462121673750971
 20
5.8638993189112929
 30
0.0
 40
0.5270000000000001
 50
171.7863803293166995
 51
179.999364204816402
  0
LINE
  5
1BF6
  8
0
 10
283.6306173864858238
 20
4.2370627960879892
 30
0.0
 11
283.7258818786544907
 21
4.1417983039192476
 31
0.0
  0
ARC
  5
1BF7
  8
0
 10
283.6581944208170967
 20
4.264640090692601
 30
0.0
 40
0.0390000000028467
 50
179.9993642056520002
 51
225.0002703787563121
  0
ARC
  5
1BF8
  8
0
 10
283.753459043120813
 20
4.1693754683855211
 30
0.0
 40
0.039
 50
224.9999999999988916
 51
270.0
  0
ARC
  5
1BF9
  8
0
 10
284.0631623655831959
 20
6.894986120126366
 30
0.0
 40
0.1688337186490026
 50
180.6937704930080884
 51
205.4722751139995012
  0
ARC
  5
1BFA
  8
0
 10
284.0434043791458976
 20
6.8855737771301131
 30
0.0
 40
0.1469483301732679
 50
205.4722751139995012
 51
224.3642158577114003
  0
ARC
  5
1BFB
  8
0
 10
284.0453655695321231
 20
6.884811710527404
 30
0.0
 40
0.1478299723144308
 50
223.6215526772982116
 51
243.8418895867065999
  0
ARC
  5
1BFC
  8
0
 10
284.0430586771415165
 20
6.8815216111676678
 30
0.0
 40
0.1438611858021138
 50
244.0888914922740867
 51
263.1427772290613802
  0
ARC
  5
1BFD
  8
0
 10
284.1212754767132083
 20
7.6138577048930163
 30
0.0
 40
0.8803517762843984
 50
263.7793275528559889
 51
269.8626816691074168
  0
LINE
  5
1BFE
  8
0
 10
283.891020606977122
 20
7.702465131540734
 30
0.0
 11
283.8943410237881722
 21
7.6967140008855228
 31
0.0
  0
ARC
  5
1BFF
  8
0
 10
283.9143410237882108
 20
7.7050981755269179
 30
0.0
 40
0.02
 50
115.7267754244815023
 51
180.0000000000227942
  0
LINE
  5
1C00
  8
0
 10
283.8910258487496208
 20
7.7024560525243437
 30
0.0
 11
283.8943410237881722
 21
7.7047236820368621
 31
0.0
  0
ARC
  5
1C01
  8
0
 10
284.3646584684278196
 20
7.6924003468823257
 30
0.0
 40
0.0200417325028305
 50
59.4036446929253401
 51
149.950127930726012
  0
LINE
  5
1C02
  8
0
 10
284.3439901311882068
 20
6.8929418336017232
 30
0.0
 11
284.3439901311882068
 21
7.7050981755269099
 31
0.0
  0
LINE
  5
1C03
  8
0
 10
284.6011748096150882
 20
7.4075151372571444
 30
0.0
 11
284.6011748096150882
 21
7.4058047442051418
 31
0.0
  0
LINE
  5
1C04
  8
0
 10
284.6011748096150882
 20
7.306096673653883
 30
0.0
 11
284.6011748096150882
 21
6.0601466363069179
 31
0.0
  0
ARC
  5
1C05
  8
0
 10
284.5627748096151777
 20
7.4075151372571533
 30
0.0
 40
0.0384
 50
359.9999999999873808
 51
16.0357451654682599
  0
ARC
  5
1C06
  8
0
 10
285.2726919674263968
 20
7.3756946788822271
 30
0.0
 40
0.6721918693859938
 50
177.4326420925185914
 51
179.9904756042132021
  0
ARC
  5
1C07
  8
0
 10
288.141205771945522
 20
7.3752178399024961
 30
0.0
 40
3.540705713538133
 50
179.9904756042132021
 51
181.1185913247188921
  0
LINE
  5
1C08
  8
0
 10
284.6191189875689247
 20
5.8639051668823763
 30
0.0
 11
284.6191367341597811
 21
4.2646405234640863
 31
0.0
  0
ARC
  5
1C09
  8
0
 10
285.2769393395209931
 20
6.0777784988802024
 30
0.0
 40
0.6759945136291891
 50
181.4946066440373897
 51
187.454477774773693
  0
ARC
  5
1C0A
  8
0
 10
289.1595520317752062
 20
6.595357201142467
 30
0.0
 40
4.5929519812848651
 50
187.5727401978060982
 51
188.2136196706831868
  0
ARC
  5
1C0B
  8
0
 10
284.0921189876012818
 20
5.8638993189112929
 30
0.0
 40
0.5270000000000001
 50
0.0006357951835592
 51
8.2136196706833555
  0
LINE
  5
1C0C
  8
0
 10
284.6077137684907257
 20
4.2370627960879892
 30
0.0
 11
284.5124492763218882
 21
4.1417983039192476
 31
0.0
  0
ARC
  5
1C0D
  8
0
 10
284.5801367341592822
 20
4.264640090692601
 30
0.0
 40
0.0390000000028467
 50
314.9997296212413858
 51
0.0006357943479639
  0
ARC
  5
1C0E
  8
0
 10
284.4848721118556796
 20
4.1693754683855211
 30
0.0
 40
0.039
 50
269.9999999999968168
 51
315.0000000000010232
  0
ARC
  5
1C0F
  8
0
 10
284.1751687893932967
 20
6.894986120126366
 30
0.0
 40
0.1688337186490026
 50
334.5277248859998735
 51
359.3062295069918264
  0
ARC
  5
1C10
  8
0
 10
284.1949267758304813
 20
6.8855737771301131
 30
0.0
 40
0.1469483301732679
 50
315.6357841422885144
 51
334.5277248860001009
  0
ARC
  5
1C11
  8
0
 10
284.1929655854443126
 20
6.884811710527404
 30
0.0
 40
0.1478299723144308
 50
296.1581104132934001
 51
316.3784473227016178
  0
ARC
  5
1C12
  8
0
 10
284.1952724778349761
 20
6.8815216111676678
 30
0.0
 40
0.1438611858021138
 50
276.8572227709386198
 51
295.9111085077258849
  0
ARC
  5
1C13
  8
0
 10
284.1170556782632843
 20
7.6138577048930163
 30
0.0
 40
0.8803517762843984
 50
270.1373183308925832
 51
276.2206724471440111
  0
LINE
  5
1C14
  8
0
 10
284.3473105479993137
 20
7.702465131540734
 30
0.0
 11
284.3439901311882068
 21
7.6967140008855228
 31
0.0
  0
ARC
  5
1C15
  8
0
 10
284.323990131188225
 20
7.7050981755269179
 30
0.0
 40
0.02
 50
359.9999999999770921
 51
64.2732245755185261
  0
LINE
  5
1C16
  8
0
 10
284.3473053062268718
 20
7.7024560525243437
 30
0.0
 11
284.3439901311882068
 21
7.7047236820368621
 31
0.0
  0
CIRCLE
  5
1C18
  8
0
 10
284.1191655774381957
 20
7.004534847585524
 30
0.0
 40
0.1119777567
  0
CIRCLE
  5
1C19
  8
0
 10
284.1191655774381957
 20
7.004534847585524
 30
0.0
 40
0.0971351770000002
  0
CIRCLE
  5
1C1A
  8
0
 10
284.1191655774381957
 20
7.004534847585524
 30
0.0
 40
0.0468053359000002
  0
LINE
  5
1C1B
  8
0
 10
284.1191711848383079
 20
7.0513752076855241
 30
0.0
 11
284.0786034393692034
 21
7.027959883786373
 31
0.0
  0
LINE
  5
1C1C
  8
0
 10
284.0786034393692034
 20
7.027959883786373
 30
0.0
 11
284.0785978319692049
 21
6.981119523686373
 31
0.0
  0
LINE
  5
1C1D
  8
0
 10
284.0785978319692049
 20
6.981119523686373
 30
0.0
 11
284.1191599700381971
 21
6.9576944874855231
 31
0.0
  0
LINE
  5
1C1E
  8
0
 10
284.1191599700381971
 20
6.9576944874855231
 30
0.0
 11
284.1597277155071879
 21
6.981109811384675
 31
0.0
  0
LINE
  5
1C1F
  8
0
 10
284.1597277155071879
 20
6.981109811384675
 30
0.0
 11
284.1597333229071864
 21
7.027950171484675
 31
0.0
  0
LINE
  5
1C20
  8
0
 10
284.1597333229071864
 20
7.027950171484675
 30
0.0
 11
284.1191711848383079
 21
7.0513752076855241
 31
0.0
  0
ENDSEC
  0
EOF
