  0
SECTION
  2
HEADER
  9
$ACADVER
  1
AC1009
  9
$INSBASE
 10
6562.3293969447995551
 20
288.9058039114498229
 30
0.0
  9
$EXTMIN
 10
6560.32936415290078
 20
285.7561976122497072
 30
0.0
  9
$EXTMAX
 10
6564.32936415290078
 20
290.9058039114498229
 30
0.0
  9
$LIMMIN
 10
0.0
 20
0.0
  9
$LIMMAX
 10
11.6929133858000007
 20
8.2677165353999982
  9
$ORTHOMODE
 70
     0
  9
$REGENMODE
 70
     1
  9
$FILLMODE
 70
     1
  9
$QTEXTMODE
 70
     0
  9
$MIRRTEXT
 70
     0
  9
$DRAGMODE
 70
     2
  9
$LTSCALE
 40
0.6431102362
  9
$OSMODE
 70
  4095
  9
$ATTMODE
 70
     1
  9
$TEXTSIZE
 40
0.2
  9
$TRACEWID
 40
0.05
  9
$TEXTSTYLE
  7
STANDARD
  9
$CLAYER
  8
0
  9
$CELTYPE
  6
BYLAYER
  9
$CECOLOR
 62
   256
  9
$DIMSCALE
 40
1.0
  9
$DIMASZ
 40
0.1875
  9
$DIMEXO
 40
0.0625
  9
$DIMDLI
 40
0.4443307087
  9
$DIMRND
 40
0.0
  9
$DIMDLE
 40
0.0
  9
$DIMEXE
 40
0.125
  9
$DIMTP
 40
0.01
  9
$DIMTM
 40
0.01
  9
$DIMTXT
 40
2.0
  9
$DIMCEN
 40
0.1052362205
  9
$DIMTSZ
 40
0.0
  9
$DIMTOL
 70
     1
  9
$DIMLIM
 70
     0
  9
$DIMTIH
 70
     1
  9
$DIMTOH
 70
     1
  9
$DIMSE1
 70
     0
  9
$DIMSE2
 70
     0
  9
$DIMTAD
 70
     0
  9
$DIMZIN
 70
     0
  9
$DIMBLK
  1

  9
$DIMASO
 70
     1
  9
$DIMSHO
 70
     1
  9
$DIMPOST
  1
\X
  9
$DIMAPOST
  1

  9
$DIMALT
 70
     1
  9
$DIMALTD
 70
     2
  9
$DIMALTF
 40
25.3999999999999986
  9
$DIMLFAC
 40
1.0
  9
$DIMTOFL
 70
     0
  9
$DIMTVP
 40
0.0
  9
$DIMTIX
 70
     0
  9
$DIMSOXD
 70
     0
  9
$DIMSAH
 70
     0
  9
$DIMBLK1
  1

  9
$DIMBLK2
  1

  9
$DIMSTYLE
  2
STANDARD
  9
$DIMCLRD
 70
     0
  9
$DIMCLRE
 70
     0
  9
$DIMCLRT
 70
     0
  9
$DIMTFAC
 40
1.0
  9
$DIMGAP
 40
0.09
  9
$LUNITS
 70
     2
  9
$LUPREC
 70
     4
  9
$SKETCHINC
 40
0.1
  9
$FILLETRAD
 40
0.0
  9
$AUNITS
 70
     0
  9
$AUPREC
 70
     0
  9
$MENU
  1
.
  9
$ELEVATION
 40
0.0
  9
$PELEVATION
 40
0.0
  9
$THICKNESS
 40
0.0
  9
$LIMCHECK
 70
     0
  9
$BLIPMODE
 70
     0
  9
$CHAMFERA
 40
0.0
  9
$CHAMFERB
 40
0.0
  9
$SKPOLY
 70
     0
  9
$TDCREATE
 40
2458060.468368056230247
  9
$TDUPDATE
 40
2460727.6467824070714414
  9
$TDINDWG
 40
0.7952385417
  9
$TDUSRTIMER
 40
0.7952385417
  9
$USRTIMER
 70
     1
  9
$ANGBASE
 50
0.0
  9
$ANGDIR
 70
     0
  9
$PDMODE
 70
     0
  9
$PDSIZE
 40
0.3125
  9
$PLINEWID
 40
0.0
  9
$COORDS
 70
     1
  9
$SPLFRAME
 70
     0
  9
$SPLINETYPE
 70
     6
  9
$SPLINESEGS
 70
     8
  9
$ATTDIA
 70
     1
  9
$ATTREQ
 70
     1
  9
$HANDLING
 70
     1
  9
$HANDSEED
  5
2E9C6
  9
$SURFTAB1
 70
     6
  9
$SURFTAB2
 70
     6
  9
$SURFTYPE
 70
     6
  9
$SURFU
 70
     6
  9
$SURFV
 70
     6
  9
$UCSNAME
  2

  9
$UCSORG
 10
0.0
 20
0.0
 30
0.0
  9
$UCSXDIR
 10
1.0
 20
0.0
 30
0.0
  9
$UCSYDIR
 10
0.0
 20
1.0
 30
0.0
  9
$PUCSNAME
  2

  9
$PUCSORG
 10
0.0
 20
0.0
 30
0.0
  9
$PUCSXDIR
 10
1.0
 20
0.0
 30
0.0
  9
$PUCSYDIR
 10
0.0
 20
1.0
 30
0.0
  9
$USERI1
 70
     0
  9
$USERI2
 70
     0
  9
$USERI3
 70
     0
  9
$USERI4
 70
     0
  9
$USERI5
 70
     0
  9
$USERR1
 40
0.0
  9
$USERR2
 40
0.0
  9
$USERR3
 40
0.0
  9
$USERR4
 40
0.0
  9
$USERR5
 40
0.0
  9
$WORLDVIEW
 70
     1
  9
$SHADEDGE
 70
     3
  9
$SHADEDIF
 70
    70
  9
$TILEMODE
 70
     1
  9
$MAXACTVP
 70
    64
  9
$PLIMCHECK
 70
     0
  9
$PEXTMIN
 10
1.0000000000000000E+20
 20
1.0000000000000000E+20
 30
1.0000000000000000E+20
  9
$PEXTMAX
 10
-1.0000000000000000E+20
 20
-1.0000000000000000E+20
 30
-1.0000000000000000E+20
  9
$PLIMMIN
 10
0.0
 20
0.0
  9
$PLIMMAX
 10
12.0
 20
9.0
  9
$UNITMODE
 70
     0
  9
$VISRETAIN
 70
     1
  9
$PLINEGEN
 70
     0
  9
$PSLTSCALE
 70
     1
  0
ENDSEC
  0
SECTION
  2
TABLES
  0
TABLE
  2
VPORT
 70
     1
  0
VPORT
  2
*ACTIVE
 70
     0
 10
0.0
 20
0.0
 11
1.0
 21
1.0
 12
2650.9640077075878253
 22
155.7513956593107025
 13
0.0
 23
0.0
 14
1.0
 24
1.0
 15
0.0
 25
0.0
 16
0.0
 26
0.0
 36
60.4960186965801583
 17
3911.3653564453120453
 27
132.5796051025390057
 37
0.0
 40
5.1808500437933862
 41
1.9458661417322829
 42
50.0
 43
0.0
 44
0.0
 50
0.0
 51
0.0
 71
     0
 72
   100
 73
     1
 74
     1
 75
     0
 76
     0
 77
     0
 78
     0
  0
ENDTAB
  0
TABLE
  2
LTYPE
 70
     2
  0
LTYPE
  2
CONTINUOUS
 70
     0
  3
Solid line
 72
    65
 73
     0
 40
0.0
  0
LTYPE
  2
PHANTOM2
 70
     0
  3
___ _ _ ___ _ _ ___ _ _ ___ _ _
 72
    65
 73
     6
 40
1.25
 49
0.625
 49
-0.125
 49
0.125
 49
-0.125
 49
0.125
 49
-0.125
  0
ENDTAB
  0
TABLE
  2
LAYER
 70
     2
  0
LAYER
  2
0
 70
     0
 62
   255
  6
CONTINUOUS
  0
LAYER
  2
DEFPOINTS
 70
     0
 62
     7
  6
CONTINUOUS
  0
ENDTAB
  0
TABLE
  2
STYLE
 70
     1
  0
STYLE
  2
STANDARD
 70
     0
 40
0.0
 41
0.8
 50
0.0
 71
     0
 42
0.2
  3
txt
  4

  0
ENDTAB
  0
TABLE
  2
VIEW
 70
     0
  0
ENDTAB
  0
TABLE
  2
UCS
 70
     0
  0
ENDTAB
  0
TABLE
  2
APPID
 70
    11
  0
APPID
  2
ACAD
 70
     0
  0
APPID
  2
ACAD_MLEADERVER
 70
     0
  0
APPID
  2
ACAD_EXEMPT_FROM_CAD_STANDARDS
 70
     0
  0
APPID
  2
ACAD_NAV_VCDISPLAY
 70
     0
  0
APPID
  2
ACAECLAYERSTANDARD
 70
     0
  0
APPID
  2
ACCMTRANSPARENCY
 70
     0
  0
APPID
  2
ACAD_DSTYLE_DIMJAG
 70
     0
  0
APPID
  2
ACAD_DSTYLE_DIMTALN
 70
     0
  0
APPID
  2
ACDBATTR
 70
     0
  0
APPID
  2
ACADANNOTATIVE
 70
     0
  0
APPID
  2
DCO15
 70
     0
  0
ENDTAB
  0
TABLE
  2
DIMSTYLE
 70
     1
  0
DIMSTYLE
  2
STANDARD
 70
     0
  3

  4

  5

  6

  7

 40
1.0
 41
0.1875
 42
0.0625
 43
0.38
 44
0.125
 45
0.0
 46
0.0
 47
0.01
 48
0.01
140
0.15625
141
0.09
142
0.0
143
25.3999999999999986
144
1.0
145
0.0
146
1.0
147
0.09
 71
     1
 72
     0
 73
     1
 74
     1
 75
     0
 76
     0
 77
     0
 78
     4
170
     0
171
     2
172
     0
173
     0
174
     0
175
     0
176
     0
177
     0
178
     0
  0
ENDTAB
  0
ENDSEC
  0
SECTION
  2
BLOCKS
  0
BLOCK
  8
0
  2
$MODEL_SPACE
 70
     0
 10
0.0
 20
0.0
 30
0.0
  3
$MODEL_SPACE
  1

  0
ENDBLK
  5
21
  8
0
  0
BLOCK
 67
     1
  8
0
  2
$PAPER_SPACE
 70
     0
 10
0.0
 20
0.0
 30
0.0
  3
$PAPER_SPACE
  1

  0
ENDBLK
  5
1D
 67
     1
  8
0
  0
ENDSEC
  0
SECTION
  2
ENTITIES
  0
ATTDEF
  5
26A5B
  8
DEFPOINTS
 10
6562.3262171070546174
 20
288.909397553062206
 30
0.0
 40
0.001
  1
P34591-BN
  3

  2
MODELNUMBER
 70
     0
1001
ACDBATTR
1070
     0
1070
     1
  0
ATTDEF
  5
26A5C
  8
DEFPOINTS
 10
6562.3260912973973973
 20
288.9077307126830192
 30
0.0
 40
0.001
  1
VICE
  3

  2
TRADENAME
 70
     0
1001
ACDBATTR
1070
     0
1070
     1
  0
ATTDEF
  5
26A5D
  8
DEFPOINTS
 10
6562.3262171070546174
 20
288.9060642197288189
 30
0.0
 40
0.001
  1
VALVE TRIM
  3

  2
PRODUCT
 70
     0
1001
ACDBATTR
1070
     0
1070
     1
  0
LINE
  5
2E864
  8
0
 10
6562.6951034791682105
 20
285.7561976122497072
 30
0.0
 11
6561.9636904104327186
 21
285.7561976122497072
 31
0.0
  0
LINE
  5
2E865
  8
0
 10
6562.8179451358018923
 20
285.8628849399522096
 30
0.0
 11
6561.8408487537981273
 21
285.8628849399522096
 31
0.0
  0
ARC
  5
2E866
  8
0
 10
6561.0793641528998705
 20
290.1558039114497092
 30
0.0
 40
0.75
 50
90.0
 51
180.0
  0
ARC
  5
2E867
  8
0
 10
6561.0793641528998705
 20
287.6558039114497092
 30
0.0
 40
0.7500000000000009
 50
180.0
 51
268.9359577090555717
  0
LINE
  5
2E868
  8
0
 10
6560.5862953035002647
 20
290.1558727608497179
 30
0.0
 11
6560.5862953035002647
 21
287.6557350620497004
 31
0.0
  0
LINE
  5
2E869
  8
0
 10
6561.1529476848463673
 20
290.6488727608498266
 30
0.0
 11
6561.0792953034997481
 21
290.6488727608498266
 31
0.0
  0
LINE
  5
2E86A
  8
0
 10
6561.3039995522813115
 20
290.7270629609978982
 30
0.0
 11
6561.3886691903935571
 21
290.8468039114496833
 31
0.0
  0
ARC
  5
2E86B
  8
0
 10
6561.1529476848463673
 20
290.833872760849772
 30
0.0
 40
0.185
 50
270.0
 51
324.7356102976125953
  0
LINE
  5
2E86C
  8
0
 10
6563.2717355654885978
 20
290.8468039114496833
 30
0.0
 11
6561.3886691903935571
 21
290.8468039114496833
 31
0.0
  0
LINE
  5
2E86D
  8
0
 10
6563.2701712788157238
 20
286.9648039114497919
 30
0.0
 11
6562.8293634756828396
 21
286.9648039114497919
 31
0.0
  0
LINE
  5
2E86E
  8
0
 10
6561.82943041391718
 20
286.9648039114497919
 30
0.0
 11
6561.3874822386487722
 21
286.9648039114497919
 31
0.0
  0
LINE
  5
2E86F
  8
0
 10
6561.1517607331015824
 20
287.1627350620498191
 30
0.0
 11
6561.0792953034997481
 21
287.1627350620498191
 31
0.0
  0
LINE
  5
2E870
  8
0
 10
6561.3874822386487722
 20
286.9648039114497919
 30
0.0
 11
6561.3028126005374361
 21
287.084544861901577
 31
0.0
  0
ARC
  5
2E871
  8
0
 10
6561.1517607331015824
 20
286.9777350620497032
 30
0.0
 40
0.185
 50
35.2643897023874118
 51
90.0
  0
ARC
  5
2E872
  8
0
 10
6561.0792953034997481
 20
290.1558727608497179
 30
0.0
 40
0.493
 50
90.0
 51
180.0000000000032117
  0
ARC
  5
2E873
  8
0
 10
6561.0792953034997481
 20
287.6557350620497004
 30
0.0
 40
0.493
 50
180.0000000000032117
 51
270.0
  0
ARC
  5
2E874
  8
0
 10
6562.3293969447995551
 20
288.9058348166498149
 30
0.0
 40
0.491858858600001
 50
64.2732245754463491
 51
115.726775424553594
  0
ARC
  5
2E875
  8
0
 10
6562.3293969447995551
 20
288.9058348166498149
 30
0.0
 40
0.4999690948000004
 50
16.0357451654329317
 51
163.9642548345669866
  0
ARC
  5
2E876
  8
0
 10
6562.0839040538603513
 20
289.3182224907466207
 30
0.0
 40
0.0200417325028305
 50
30.0498720692723396
 51
120.596355307063007
  0
ARC
  5
2E877
  8
0
 10
6562.3293969447995551
 20
288.9058348166498149
 30
0.0
 40
0.6488595650537197
 50
317.9752760677969832
 51
222.0247239322029884
  0
ARC
  5
2E878
  8
0
 10
6562.3293969447995551
 20
288.9058348166498149
 30
0.0
 40
1.062961220799999
 50
296.9658212817673189
 51
243.0341787182325959
  0
LINE
  5
2E879
  8
0
 10
6562.1045723911011009
 20
288.5187639774659942
 30
0.0
 11
6562.1045723911011009
 21
289.3309203193911117
 31
0.0
  0
ARC
  5
2E87A
  8
0
 10
6563.5793641528998705
 20
290.155837215849715
 30
0.0
 40
0.75
 50
0.0
 51
89.4600427054733132
  0
ARC
  5
2E87B
  8
0
 10
6563.5798949726331557
 20
287.6552731160268763
 30
0.0
 40
0.7494693925565264
 50
271.0651922089492132
 51
359.956875434176311
  0
LINE
  5
2E87C
  8
0
 10
6564.0724330023012953
 20
290.1559060652497237
 30
0.0
 11
6564.0724330022985669
 21
287.6557683664497063
 31
0.0
  0
LINE
  5
2E87D
  8
0
 10
6563.5074335212693768
 20
290.6489060652497187
 30
0.0
 11
6563.5794330022999929
 21
290.6489060652497187
 31
0.0
  0
LINE
  5
2E87E
  8
0
 10
6563.3563816538344327
 20
290.7270962653979041
 30
0.0
 11
6563.2717355654885978
 21
290.8468039114496833
 31
0.0
  0
ARC
  5
2E87F
  8
0
 10
6563.5074335212693768
 20
290.833906065249721
 30
0.0
 40
0.185
 50
215.2643897023874047
 51
270.0
  0
LINE
  5
2E880
  8
0
 10
6563.5059163341293242
 20
287.1627683664497113
 30
0.0
 11
6563.5794330022999929
 21
287.1627683664497113
 31
0.0
  0
LINE
  5
2E881
  8
0
 10
6563.2701712788157238
 20
286.9648039114497919
 30
0.0
 11
6563.3548644666952896
 21
287.0845781663015828
 31
0.0
  0
ARC
  5
2E882
  8
0
 10
6563.5059163341293242
 20
286.9777683664498227
 30
0.0
 40
0.185
 50
90.0
 51
144.7356102976125953
  0
ARC
  5
2E883
  8
0
 10
6563.5794330022999929
 20
290.1559060652497237
 30
0.0
 40
0.493
 50
359.9999999999968168
 51
90.0
  0
ARC
  5
2E884
  8
0
 10
6563.5794330022999929
 20
287.6557683664497063
 30
0.0
 40
0.493
 50
270.0
 51
359.9999999999968168
  0
LINE
  5
2E885
  8
0
 10
6561.8473877126725711
 20
289.0333372811213053
 30
0.0
 11
6561.8473877126725711
 21
289.0316268880694111
 31
0.0
  0
LINE
  5
2E886
  8
0
 10
6561.8473877126725711
 20
288.9319188175181239
 30
0.0
 11
6561.8473877126725711
 21
287.6859687801712084
 31
0.0
  0
ARC
  5
2E887
  8
0
 10
6561.8857877126729363
 20
289.0333372811213053
 30
0.0
 40
0.0384
 50
163.9642548345294983
 51
180.0000000000129887
  0
ARC
  5
2E888
  8
0
 10
6561.1758705548618309
 20
289.001516822746396
 30
0.0
 40
0.6721918693859938
 50
0.0095243957880158
 51
2.5673579074830841
  0
ARC
  5
2E889
  8
0
 10
6558.3073567503415688
 20
289.0010399837667023
 30
0.0
 40
3.540705713538133
 50
358.8814086752821026
 51
0.0095243957880158
  0
LINE
  5
2E88A
  8
0
 10
6561.8294435347188482
 20
287.4897273107466162
 30
0.0
 11
6561.8294257881289013
 21
285.8904626673282792
 31
0.0
  0
LINE
  5
2E88B
  8
0
 10
6561.8408487537981273
 20
285.8628849399522096
 30
0.0
 11
6561.9361132459662258
 21
285.7676204477834858
 31
0.0
  0
ARC
  5
2E88C
  8
0
 10
6561.8684257881277517
 20
285.8904622345568214
 30
0.0
 40
0.0390000000028467
 50
179.9993642056527108
 51
225.0002703787417886
  0
ARC
  5
2E88D
  8
0
 10
6561.9636904104327186
 20
285.7951976122496944
 30
0.0
 40
0.039
 50
224.9999999999953957
 51
270.0
  0
ARC
  5
2E88E
  8
0
 10
6562.2733937328939646
 20
288.5208082639906024
 30
0.0
 40
0.1688337186490026
 50
180.6937704930076052
 51
205.4722751140025139
  0
ARC
  5
2E88F
  8
0
 10
6562.2536357464578032
 20
288.5113959209942891
 30
0.0
 40
0.1469483301732679
 50
205.4722751140025139
 51
224.3642158577191026
  0
ARC
  5
2E890
  8
0
 10
6562.2555969368449951
 20
288.5106338543915854
 30
0.0
 40
0.1478299723144308
 50
223.6215526772915894
 51
243.841889586720697
  0
ARC
  5
2E891
  8
0
 10
6562.2532900444521147
 20
288.5073437550319113
 30
0.0
 40
0.1438611858021138
 50
244.0888914922529125
 51
263.1427772290678035
  0
ARC
  5
2E892
  8
0
 10
6562.3315068440242612
 20
289.2396798487573051
 30
0.0
 40
0.8803517762843984
 50
263.7793275528590016
 51
269.862681669094286
  0
LINE
  5
2E893
  8
0
 10
6562.1012519742889708
 20
289.3282872754048753
 30
0.0
 11
6562.1045723911011009
 21
289.3225361447496766
 31
0.0
  0
ARC
  5
2E894
  8
0
 10
6562.1245723910997185
 20
289.3309203193911117
 30
0.0
 40
0.02
 50
115.7267754244967932
 51
180.0000000000227942
  0
LINE
  5
2E895
  8
0
 10
6562.1012572160616401
 20
289.3282781963886237
 30
0.0
 11
6562.1045723911011009
 21
289.3305458259010834
 31
0.0
  0
ARC
  5
2E896
  8
0
 10
6562.5748898357396683
 20
289.3182224907466207
 30
0.0
 40
0.0200417325028305
 50
59.4036446929369433
 51
149.9501279307276036
  0
LINE
  5
2E897
  8
0
 10
6562.5542214984998282
 20
288.5187639774659942
 30
0.0
 11
6562.5542214984998282
 21
289.3309203193911117
 31
0.0
  0
LINE
  5
2E898
  8
0
 10
6562.8114061769256296
 20
289.0333372811213053
 30
0.0
 11
6562.8114061769256296
 21
289.0316268880694111
 31
0.0
  0
LINE
  5
2E899
  8
0
 10
6562.8114061769256296
 20
288.9319188175181239
 30
0.0
 11
6562.8114061769256296
 21
287.6859687801712084
 31
0.0
  0
ARC
  5
2E89A
  8
0
 10
6562.7730061769270833
 20
289.0333372811213053
 30
0.0
 40
0.0384
 50
359.9999999999869829
 51
16.035745165470491
  0
ARC
  5
2E89B
  8
0
 10
6563.4829233347381887
 20
289.001516822746396
 30
0.0
 40
0.6721918693859938
 50
177.4326420925168861
 51
179.9904756042120084
  0
ARC
  5
2E89C
  8
0
 10
6566.3514371392584508
 20
289.0010399837667023
 30
0.0
 40
3.540705713538133
 50
179.9904756042120084
 51
181.1185913247178974
  0
LINE
  5
2E89D
  8
0
 10
6562.8293503548811714
 20
287.4897273107466162
 30
0.0
 11
6562.8293681014720278
 21
285.8904626673282792
 31
0.0
  0
LINE
  5
2E89E
  8
0
 10
6562.8179451358018923
 20
285.8628849399522096
 30
0.0
 11
6562.7226806436337938
 21
285.7676204477834858
 31
0.0
  0
ARC
  5
2E89F
  8
0
 10
6562.7903681014713584
 20
285.8904622345568214
 30
0.0
 40
0.0390000000028467
 50
314.9997296212580977
 51
0.0006357943472516
  0
ARC
  5
2E8A0
  8
0
 10
6562.6951034791682105
 20
285.7951976122496944
 30
0.0
 40
0.039
 50
270.0
 51
315.0000000000046043
  0
ARC
  5
2E8A1
  8
0
 10
6562.3854001567051455
 20
288.5208082639906024
 30
0.0
 40
0.1688337186490026
 50
334.5277248859974861
 51
359.3062295069922811
  0
ARC
  5
2E8A2
  8
0
 10
6562.4051581431422164
 20
288.5113959209942891
 30
0.0
 40
0.1469483301732679
 50
315.6357841422808974
 51
334.5277248859974861
  0
ARC
  5
2E8A3
  8
0
 10
6562.403196952755934
 20
288.5106338543915854
 30
0.0
 40
0.1478299723144308
 50
296.158110413279303
 51
316.3784473227083254
  0
ARC
  5
2E8A4
  8
0
 10
6562.4055038451469954
 20
288.5073437550319113
 30
0.0
 40
0.1438611858021138
 50
276.8572227709321965
 51
295.9111085077470875
  0
ARC
  5
2E8A5
  8
0
 10
6562.3272870455748489
 20
289.2396798487573051
 30
0.0
 40
0.8803517762843984
 50
270.137318330905714
 51
276.2206724471408847
  0
LINE
  5
2E8A6
  8
0
 10
6562.5575419153101393
 20
289.3282872754048753
 30
0.0
 11
6562.5542214984998282
 21
289.3225361447496766
 31
0.0
  0
ARC
  5
2E8A7
  8
0
 10
6562.5342214985012106
 20
289.3309203193911117
 30
0.0
 40
0.02
 50
359.9999999999772058
 51
64.2732245755031926
  0
LINE
  5
2E8A8
  8
0
 10
6562.557536673539289
 20
289.3282781963886237
 30
0.0
 11
6562.5542214984998282
 21
289.3305458259010834
 31
0.0
  0
LINE
  5
2E8AA
  8
0
 10
6561.0793641528998705
 20
290.9058039114498229
 30
0.0
 11
6563.5864320727359882
 21
290.9058039114498229
 31
0.0
  0
LINE
  5
2E8AB
  8
0
 10
6563.5938276388369559
 20
286.9059332390742156
 30
0.0
 11
6562.8293516794583411
 21
286.9059332390742156
 31
0.0
  0
LINE
  5
2E8AC
  8
0
 10
6561.8294370568901286
 20
286.9059332390742156
 30
0.0
 11
6561.0654366724747888
 21
286.9059332390742156
 31
0.0
  0
LINE
  5
2E8AD
  8
0
 10
6564.3293641528998705
 20
290.155837215849715
 30
0.0
 11
6564.3293641528998705
 21
287.6547090162035261
 31
0.0
  0
LINE
  5
2E8AE
  8
0
 10
6560.32936415290078
 20
290.1558039114497092
 30
0.0
 11
6560.32936415290078
 21
287.6558039114497092
 31
0.0
  0
ARC
  5
2E8AF
  8
0
 10
6584.873860022048575
 20
285.4815036792932119
 30
0.0
 40
23.1317550867935289
 50
174.5313911130679116
 51
175.0194971711912046
  0
ARC
  5
2E8B0
  8
0
 10
6557.8379982288661267
 20
287.1322628203758995
 30
0.0
 40
5.0041359801405827
 50
4.0963445778825962
 51
6.3527671378520756
  0
CIRCLE
  5
2E8B1
  8
0
 10
6562.3294505937501526
 20
288.6303569914496734
 30
0.0
 40
0.0468053358999999
  0
CIRCLE
  5
2E8B2
  8
0
 10
6562.3294505937501526
 20
288.6303569914496734
 30
0.0
 40
0.0971351769999998
  0
CIRCLE
  5
2E8B3
  8
0
 10
6562.3294505937501526
 20
288.6303569914496734
 30
0.0
 40
0.1179712312000003
  0
LINE
  5
2E8B4
  8
0
 10
6562.3294505937501526
 20
288.6771623273497198
 30
0.0
 11
6562.2888828437489792
 21
288.6537021650120209
 31
0.0
  0
LINE
  5
2E8B5
  8
0
 10
6562.2888828437489792
 20
288.6537021650120209
 30
0.0
 11
6562.2888828437489792
 21
288.6070118178876101
 31
0.0
  0
LINE
  5
2E8B6
  8
0
 10
6562.2888828437489792
 20
288.6070118178876101
 30
0.0
 11
6562.3294505934036351
 21
288.5835516555497975
 31
0.0
  0
LINE
  5
2E8B7
  8
0
 10
6562.3294505937501526
 20
288.5835516555497975
 30
0.0
 11
6562.3699852037498204
 21
288.606954355898722
 31
0.0
  0
LINE
  5
2E8B8
  8
0
 10
6562.3699852039262623
 20
288.6069543562035165
 30
0.0
 11
6562.3699851890050923
 21
288.6537596678666091
 31
0.0
  0
LINE
  5
2E8B9
  8
0
 10
6562.3294505937501526
 20
288.6771623273497198
 30
0.0
 11
6562.3699851889286947
 21
288.6537596680000206
 31
0.0
  0
ENDSEC
  0
EOF
