  0
SECTION
  2
HEADER
  9
$ACADVER
  1
AC1009
  9
$INSBASE
 10
6558.6551864825651137
 20
287.7328757823673868
 30
0.0
  9
$EXTMIN
 10
6554.2455802374288396
 20
284.5832694831673848
 30
0.0
  9
$EXTMAX
 10
6558.6663512082977832
 20
289.7328757823673868
 30
0.0
  9
$LIMMIN
 10
0.0
 20
0.0
  9
$LIMMAX
 10
11.6929133858000007
 20
8.2677165353999982
  9
$ORTHOMODE
 70
     0
  9
$REGENMODE
 70
     1
  9
$FILLMODE
 70
     1
  9
$QTEXTMODE
 70
     0
  9
$MIRRTEXT
 70
     0
  9
$DRAGMODE
 70
     2
  9
$LTSCALE
 40
0.6431102362
  9
$OSMODE
 70
  4095
  9
$ATTMODE
 70
     1
  9
$TEXTSIZE
 40
0.2
  9
$TRACEWID
 40
0.05
  9
$TEXTSTYLE
  7
STANDARD
  9
$CLAYER
  8
0
  9
$CELTYPE
  6
BYLAYER
  9
$CECOLOR
 62
   256
  9
$DIMSCALE
 40
1.0
  9
$DIMASZ
 40
0.1875
  9
$DIMEXO
 40
0.0625
  9
$DIMDLI
 40
0.4443307087
  9
$DIMRND
 40
0.0
  9
$DIMDLE
 40
0.0
  9
$DIMEXE
 40
0.125
  9
$DIMTP
 40
0.01
  9
$DIMTM
 40
0.01
  9
$DIMTXT
 40
2.0
  9
$DIMCEN
 40
0.1052362205
  9
$DIMTSZ
 40
0.0
  9
$DIMTOL
 70
     1
  9
$DIMLIM
 70
     0
  9
$DIMTIH
 70
     1
  9
$DIMTOH
 70
     1
  9
$DIMSE1
 70
     0
  9
$DIMSE2
 70
     0
  9
$DIMTAD
 70
     0
  9
$DIMZIN
 70
     0
  9
$DIMBLK
  1

  9
$DIMASO
 70
     1
  9
$DIMSHO
 70
     1
  9
$DIMPOST
  1
\X
  9
$DIMAPOST
  1

  9
$DIMALT
 70
     1
  9
$DIMALTD
 70
     2
  9
$DIMALTF
 40
25.3999999999999986
  9
$DIMLFAC
 40
1.0
  9
$DIMTOFL
 70
     0
  9
$DIMTVP
 40
0.0
  9
$DIMTIX
 70
     0
  9
$DIMSOXD
 70
     0
  9
$DIMSAH
 70
     0
  9
$DIMBLK1
  1

  9
$DIMBLK2
  1

  9
$DIMSTYLE
  2
STANDARD
  9
$DIMCLRD
 70
     0
  9
$DIMCLRE
 70
     0
  9
$DIMCLRT
 70
     0
  9
$DIMTFAC
 40
1.0
  9
$DIMGAP
 40
0.09
  9
$LUNITS
 70
     2
  9
$LUPREC
 70
     4
  9
$SKETCHINC
 40
0.1
  9
$FILLETRAD
 40
0.0
  9
$AUNITS
 70
     0
  9
$AUPREC
 70
     0
  9
$MENU
  1
.
  9
$ELEVATION
 40
0.0
  9
$PELEVATION
 40
0.0
  9
$THICKNESS
 40
0.0
  9
$LIMCHECK
 70
     0
  9
$BLIPMODE
 70
     0
  9
$CHAMFERA
 40
0.0
  9
$CHAMFERB
 40
0.0
  9
$SKPOLY
 70
     0
  9
$TDCREATE
 40
2458060.468368056230247
  9
$TDUPDATE
 40
2460727.6679861107841134
  9
$TDINDWG
 40
0.7945903935
  9
$TDUSRTIMER
 40
0.7945903935
  9
$USRTIMER
 70
     1
  9
$ANGBASE
 50
0.0
  9
$ANGDIR
 70
     0
  9
$PDMODE
 70
     0
  9
$PDSIZE
 40
0.3125
  9
$PLINEWID
 40
0.0
  9
$COORDS
 70
     1
  9
$SPLFRAME
 70
     0
  9
$SPLINETYPE
 70
     6
  9
$SPLINESEGS
 70
     8
  9
$ATTDIA
 70
     1
  9
$ATTREQ
 70
     1
  9
$HANDLING
 70
     1
  9
$HANDSEED
  5
2E942
  9
$SURFTAB1
 70
     6
  9
$SURFTAB2
 70
     6
  9
$SURFTYPE
 70
     6
  9
$SURFU
 70
     6
  9
$SURFV
 70
     6
  9
$UCSNAME
  2

  9
$UCSORG
 10
0.0
 20
0.0
 30
0.0
  9
$UCSXDIR
 10
1.0
 20
0.0
 30
0.0
  9
$UCSYDIR
 10
0.0
 20
1.0
 30
0.0
  9
$PUCSNAME
  2

  9
$PUCSORG
 10
0.0
 20
0.0
 30
0.0
  9
$PUCSXDIR
 10
1.0
 20
0.0
 30
0.0
  9
$PUCSYDIR
 10
0.0
 20
1.0
 30
0.0
  9
$USERI1
 70
     0
  9
$USERI2
 70
     0
  9
$USERI3
 70
     0
  9
$USERI4
 70
     0
  9
$USERI5
 70
     0
  9
$USERR1
 40
0.0
  9
$USERR2
 40
0.0
  9
$USERR3
 40
0.0
  9
$USERR4
 40
0.0
  9
$USERR5
 40
0.0
  9
$WORLDVIEW
 70
     1
  9
$SHADEDGE
 70
     3
  9
$SHADEDIF
 70
    70
  9
$TILEMODE
 70
     1
  9
$MAXACTVP
 70
    64
  9
$PLIMCHECK
 70
     0
  9
$PEXTMIN
 10
1.0000000000000000E+20
 20
1.0000000000000000E+20
 30
1.0000000000000000E+20
  9
$PEXTMAX
 10
-1.0000000000000000E+20
 20
-1.0000000000000000E+20
 30
-1.0000000000000000E+20
  9
$PLIMMIN
 10
0.0
 20
0.0
  9
$PLIMMAX
 10
12.0
 20
9.0
  9
$UNITMODE
 70
     0
  9
$VISRETAIN
 70
     1
  9
$PLINEGEN
 70
     0
  9
$PSLTSCALE
 70
     1
  0
ENDSEC
  0
SECTION
  2
TABLES
  0
TABLE
  2
VPORT
 70
     1
  0
VPORT
  2
*ACTIVE
 70
     0
 10
0.0
 20
0.0
 11
1.0
 21
1.0
 12
2645.0906092775508114
 22
154.5784675302282949
 13
0.0
 23
0.0
 14
1.0
 24
1.0
 15
0.0
 25
0.0
 16
0.0
 26
0.0
 36
60.4960186965801583
 17
3911.3653564453120453
 27
132.5796051025390057
 37
0.0
 40
5.1799874573073899
 41
1.9458661417322829
 42
50.0
 43
0.0
 44
0.0
 50
0.0
 51
0.0
 71
     0
 72
   100
 73
     1
 74
     1
 75
     0
 76
     0
 77
     0
 78
     0
  0
ENDTAB
  0
TABLE
  2
LTYPE
 70
     2
  0
LTYPE
  2
CONTINUOUS
 70
     0
  3
Solid line
 72
    65
 73
     0
 40
0.0
  0
LTYPE
  2
PHANTOM2
 70
     0
  3
___ _ _ ___ _ _ ___ _ _ ___ _ _
 72
    65
 73
     6
 40
1.25
 49
0.625
 49
-0.125
 49
0.125
 49
-0.125
 49
0.125
 49
-0.125
  0
ENDTAB
  0
TABLE
  2
LAYER
 70
     2
  0
LAYER
  2
0
 70
     0
 62
   255
  6
CONTINUOUS
  0
LAYER
  2
DEFPOINTS
 70
     0
 62
     7
  6
CONTINUOUS
  0
ENDTAB
  0
TABLE
  2
STYLE
 70
     1
  0
STYLE
  2
STANDARD
 70
     0
 40
0.0
 41
0.8
 50
0.0
 71
     0
 42
0.2
  3
txt
  4

  0
ENDTAB
  0
TABLE
  2
VIEW
 70
     0
  0
ENDTAB
  0
TABLE
  2
UCS
 70
     0
  0
ENDTAB
  0
TABLE
  2
APPID
 70
    11
  0
APPID
  2
ACAD
 70
     0
  0
APPID
  2
ACAD_MLEADERVER
 70
     0
  0
APPID
  2
ACAD_EXEMPT_FROM_CAD_STANDARDS
 70
     0
  0
APPID
  2
ACAD_NAV_VCDISPLAY
 70
     0
  0
APPID
  2
ACAECLAYERSTANDARD
 70
     0
  0
APPID
  2
ACCMTRANSPARENCY
 70
     0
  0
APPID
  2
ACAD_DSTYLE_DIMJAG
 70
     0
  0
APPID
  2
ACAD_DSTYLE_DIMTALN
 70
     0
  0
APPID
  2
ACDBATTR
 70
     0
  0
APPID
  2
ACADANNOTATIVE
 70
     0
  0
APPID
  2
DCO15
 70
     0
  0
ENDTAB
  0
TABLE
  2
DIMSTYLE
 70
     1
  0
DIMSTYLE
  2
STANDARD
 70
     0
  3

  4

  5

  6

  7

 40
1.0
 41
0.1875
 42
0.0625
 43
0.38
 44
0.125
 45
0.0
 46
0.0
 47
0.01
 48
0.01
140
0.15625
141
0.09
142
0.0
143
25.3999999999999986
144
1.0
145
0.0
146
1.0
147
0.09
 71
     1
 72
     0
 73
     1
 74
     1
 75
     0
 76
     0
 77
     0
 78
     4
170
     0
171
     2
172
     0
173
     0
174
     0
175
     0
176
     0
177
     0
178
     0
  0
ENDTAB
  0
ENDSEC
  0
SECTION
  2
BLOCKS
  0
BLOCK
  8
0
  2
$MODEL_SPACE
 70
     0
 10
0.0
 20
0.0
 30
0.0
  3
$MODEL_SPACE
  1

  0
ENDBLK
  5
21
  8
0
  0
BLOCK
 67
     1
  8
0
  2
$PAPER_SPACE
 70
     0
 10
0.0
 20
0.0
 30
0.0
  3
$PAPER_SPACE
  1

  0
ENDBLK
  5
1D
 67
     1
  8
0
  0
ENDSEC
  0
SECTION
  2
ENTITIES
  0
ATTDEF
  5
26A5B
  8
DEFPOINTS
 10
6558.6556845416298529
 20
287.7338809959666719
 30
0.0
 40
0.001
  1
P34591-BV
  3

  2
MODELNUMBER
 70
     0
1001
ACDBATTR
1070
     0
1070
     1
  0
ATTDEF
  5
26A5C
  8
DEFPOINTS
 10
6558.6555587319717233
 20
287.7322141555875987
 30
0.0
 40
0.001
  1
VICE
  3

  2
TRADENAME
 70
     0
1001
ACDBATTR
1070
     0
1070
     1
  0
ATTDEF
  5
26A5D
  8
DEFPOINTS
 10
6558.6556845416298529
 20
287.7305476626333984
 30
0.0
 40
0.001
  1
VALVE TRIM
  3

  2
PRODUCT
 70
     0
1001
ACDBATTR
1070
     0
1070
     1
  0
LINE
  5
2E78C
  8
0
 10
6554.8555801644652092
 20
287.7328757823673868
 30
0.0
 11
6556.3103833140658026
 21
287.7328757823673868
 31
0.0
  0
LINE
  5
2E78D
  8
0
 10
6558.6551864825651137
 20
289.7328757823673868
 30
0.0
 11
6558.6551864825651137
 21
285.7328757823673868
 31
0.0
  0
LINE
  5
2E78E
  8
0
 10
6558.1041864825656376
 20
289.7328757823673868
 30
0.0
 11
6558.6551864825651137
 21
289.7328757823673868
 31
0.0
  0
LINE
  5
2E78F
  8
0
 10
6558.0451864825663506
 20
289.6738757823674177
 30
0.0
 11
6558.0451864825663506
 21
285.7918757823674127
 31
0.0
  0
LINE
  5
2E790
  8
0
 10
6558.2667622941326044
 20
289.7182311214352239
 30
0.0
 11
6558.0598311435151118
 21
289.511299970916582
 31
0.0
  0
ARC
  5
2E791
  8
0
 10
6558.3021176331840252
 20
289.6828757823673755
 30
0.0
 40
0.05
 50
90.0
 51
134.9999999861545064
  0
ARC
  5
2E792
  8
0
 10
6558.1041864825656376
 20
289.6738757823674177
 30
0.0
 40
0.059
 50
90.0
 51
180.0
  0
ARC
  5
2E793
  8
0
 10
6558.095186482565623
 20
289.4759446318487903
 30
0.0
 40
0.05
 50
134.999999986149902
 51
180.0000000000032117
  0
LINE
  5
2E794
  8
0
 10
6557.0009345140642836
 20
288.7758679083673883
 30
0.0
 11
6557.0009345140642836
 21
286.6898836563673854
 31
0.0
  0
LINE
  5
2E795
  8
0
 10
6556.9709344951652383
 20
288.7858679083673792
 30
0.0
 11
6556.9709344951652383
 21
286.6798836563673945
 31
0.0
  0
ARC
  5
2E796
  8
0
 10
6556.4678083579810846
 20
288.7564679083673127
 30
0.0
 40
0.0394
 50
90.0
 51
163.3007557629659914
  0
LINE
  5
2E797
  8
0
 10
6556.4678083579810846
 20
288.7958679083673132
 30
0.0
 11
6556.9609344951650201
 21
288.7958679083673132
 31
0.0
  0
LINE
  5
2E798
  8
0
 10
6557.0209345140647201
 20
288.7958679083673132
 30
0.0
 11
6558.0451864825663506
 21
288.7958679083673132
 31
0.0
  0
LINE
  5
2E799
  8
0
 10
6556.3203833140651113
 20
288.3817662526211052
 30
0.0
 11
6556.3203833140651113
 21
287.0839853121136116
 31
0.0
  0
ARC
  5
2E79A
  8
0
 10
6556.3103833140658026
 20
287.7228757823673959
 30
0.0
 40
0.01
 50
0.0
 51
90.0
  0
ARC
  5
2E79B
  8
0
 10
6556.3103833140658026
 20
287.3955450736673924
 30
0.0
 40
0.01
 50
270.0
 51
0.0
  0
LINE
  5
2E79C
  8
0
 10
6556.9709344951652383
 20
288.4027865012977827
 30
0.0
 11
6556.9833609206925757
 21
288.4152129266810221
 31
0.0
  0
ARC
  5
2E79D
  8
0
 10
6556.9409345140657024
 20
288.4576393337969193
 30
0.0
 40
0.06
 50
314.9999996696392941
 51
0.0
  0
ARC
  5
2E79E
  8
0
 10
6557.0209345140647201
 20
288.7758679083673883
 30
0.0
 40
0.02
 50
90.0
 51
180.0000000000065086
  0
ARC
  5
2E79F
  8
0
 10
6556.9609344951650201
 20
288.7858679083673792
 30
0.0
 40
0.01
 50
0.0
 51
90.0
  0
LINE
  5
2E7A0
  8
0
 10
6556.3262454604218874
 20
288.4217076087218743
 30
0.0
 11
6556.4300700023441095
 21
288.7677894150606903
 31
0.0
  0
ARC
  5
2E7A1
  8
0
 10
6556.459383314065235
 20
288.3817662526211052
 30
0.0
 40
0.139
 50
163.3007557629597954
 51
180.0000000000065086
  0
LINE
  5
2E7A2
  8
0
 10
6556.4300700023441095
 20
288.7677894150606903
 30
0.0
 11
6556.4300700023441095
 21
286.6979621496740833
 31
0.0
  0
LINE
  5
2E7A3
  8
0
 10
6558.1041864825656376
 20
285.7328757823673868
 30
0.0
 11
6558.6551864825651137
 21
285.7328757823673868
 31
0.0
  0
LINE
  5
2E7A4
  8
0
 10
6558.2667622941326044
 20
285.7475204432994929
 30
0.0
 11
6558.0598311435151118
 21
285.9544515938181917
 31
0.0
  0
ARC
  5
2E7A5
  8
0
 10
6558.3021176331840252
 20
285.7828757823673982
 30
0.0
 40
0.05
 50
225.0000000138454936
 51
270.0
  0
ARC
  5
2E7A6
  8
0
 10
6558.1041864825656376
 20
285.7918757823674127
 30
0.0
 40
0.059
 50
180.0
 51
270.0
  0
ARC
  5
2E7A7
  8
0
 10
6558.095186482565623
 20
285.9898069328859833
 30
0.0
 40
0.05
 50
179.9999999999967031
 51
225.0000000138500127
  0
LINE
  5
2E7A8
  8
0
 10
6558.0451864825663506
 20
286.6698836563674035
 30
0.0
 11
6557.0209345140647201
 21
286.6698836563674035
 31
0.0
  0
LINE
  5
2E7A9
  8
0
 10
6556.9609344951650201
 20
286.6698836563674035
 30
0.0
 11
6556.4678083579810846
 21
286.6698836563674035
 31
0.0
  0
ARC
  5
2E7AA
  8
0
 10
6556.4678083579810846
 20
286.7092836563674041
 30
0.0
 40
0.0394
 50
196.6992442370338949
 51
270.0
  0
LINE
  5
2E7AB
  8
0
 10
6556.9709344951652383
 20
287.0636321023794721
 30
0.0
 11
6556.9833609206925757
 21
287.051205676996176
 31
0.0
  0
ARC
  5
2E7AC
  8
0
 10
6556.9409345140657024
 20
287.0087792698803923
 30
0.0
 40
0.06
 50
0.0
 51
45.0000003303606917
  0
ARC
  5
2E7AD
  8
0
 10
6557.0209345140647201
 20
286.6898836563673854
 30
0.0
 40
0.02
 50
179.9999999999934914
 51
270.0
  0
ARC
  5
2E7AE
  8
0
 10
6556.9609344951650201
 20
286.6798836563673945
 30
0.0
 40
0.01
 50
270.0
 51
0.0
  0
LINE
  5
2E7AF
  8
0
 10
6556.3262454604218874
 20
287.0440439560128993
 30
0.0
 11
6556.4300700023441095
 21
286.6979621496740833
 31
0.0
  0
ARC
  5
2E7B0
  8
0
 10
6556.459383314065235
 20
287.0839853121136116
 30
0.0
 40
0.139
 50
179.9999999999934914
 51
196.6992442370400909
  0
LINE
  5
2E7B1
  8
0
 10
6556.3103833140658026
 20
288.2328757823673868
 30
0.0
 11
6555.3245260254880122
 21
288.2328757823673868
 31
0.0
  0
ARC
  5
2E7B2
  8
0
 10
6556.3103833140658026
 20
288.2228757823673959
 30
0.0
 40
0.01
 50
0.0000000000065138
 51
90.0
  0
LINE
  5
2E7B3
  8
0
 10
6554.7456904006658078
 20
288.2247655461674185
 30
0.0
 11
6554.9036071783311854
 21
288.2247655461674185
 31
0.0
  0
LINE
  5
2E7B4
  8
0
 10
6555.1337057260670917
 20
288.2247655461674185
 30
0.0
 11
6555.2756439562981541
 21
288.2247655461674185
 31
0.0
  0
LINE
  5
2E7B5
  8
0
 10
6554.3131058364651835
 20
287.7328360941669985
 30
0.0
 11
6554.3131058364651835
 21
287.3403344761252924
 31
0.0
  0
LINE
  5
2E7B6
  8
0
 10
6554.2536904006647092
 20
287.7327655461673999
 30
0.0
 11
6554.2536904006647092
 21
287.5742955480870933
 31
0.0
  0
LINE
  5
2E7B7
  8
0
 10
6554.2536904006647092
 20
287.3445430135768106
 30
0.0
 11
6554.2536904006647092
 21
287.2053611774779256
 31
0.0
  0
ARC
  5
2E7B8
  8
0
 10
6554.7456904006658078
 20
287.7327655461673999
 30
0.0
 40
0.492
 50
90.0
 51
180.0
  0
ARC
  5
2E7B9
  8
0
 10
6555.1333767014812111
 20
288.503629676196681
 30
0.0
 40
0.3384764562654566
 50
271.8835155723488128
 51
286.2931051558880995
  0
ARC
  5
2E7BA
  8
0
 10
6555.1413958687053309
 20
288.4743520679907078
 30
0.0
 40
0.3081253106238184
 50
286.3891962142924967
 51
297.7934810008471231
  0
ARC
  5
2E7BB
  8
0
 10
6555.2528300889171078
 20
288.2629399613439887
 30
0.0
 40
0.0691427500229878
 50
297.7934810008471231
 51
316.1079224705164847
  0
ARC
  5
2E7BC
  8
0
 10
6549.1139271001011366
 20
291.7953945600721113
 30
0.0
 40
7.1497963572629581
 50
329.9491561735289906
 51
330.0219535512562743
  0
ARC
  5
2E7BD
  8
0
 10
6555.3245260254880122
 20
288.212875782367405
 30
0.0
 40
0.02
 50
90.0
 51
150.021953551259088
  0
ARC
  5
2E7BE
  8
0
 10
6555.271245345819807
 20
288.2043780275577092
 30
0.0
 40
0.0208566221905768
 50
4.4318520398324761
 51
77.8250439767009112
  0
LINE
  5
2E7BF
  8
0
 10
6555.2930551849913172
 20
287.3855450736674015
 30
0.0
 11
6556.3103833140658026
 21
287.3855450736674015
 31
0.0
  0
LINE
  5
2E7C0
  8
0
 10
6555.220223186527619
 20
287.3553770721296132
 30
0.0
 11
6555.123078874604289
 21
287.2582327602052032
 31
0.0
  0
ARC
  5
2E7C1
  8
0
 10
6555.2930551849913172
 20
287.2825450736673929
 30
0.0
 40
0.103
 50
90.0
 51
135.0000000000046043
  0
LINE
  5
2E7C2
  8
0
 10
6555.0929108730661028
 20
287.1854007617429829
 30
0.0
 11
6555.0929108730661028
 21
286.0267344533637015
 31
0.0
  0
ARC
  5
2E7C3
  8
0
 10
6555.1959108730661683
 20
287.1854007617429261
 30
0.0
 40
0.103
 50
135.0000000000069065
 51
179.9999999999967031
  0
LINE
  5
2E7C4
  8
0
 10
6556.3102583554409648
 20
287.4770609647650872
 30
0.0
 11
6555.2423365463109803
 21
287.4904066108121015
 31
0.0
  0
LINE
  5
2E7C5
  8
0
 10
6555.1811703215998932
 20
287.4655173237015902
 30
0.0
 11
6555.0129386231301396
 21
287.2972856252332008
 31
0.0
  0
LINE
  5
2E7C6
  8
0
 10
6554.9880493360205946
 20
287.2361194005223979
 30
0.0
 11
6554.9898848638658819
 21
286.1282966378673791
 31
0.0
  0
ARC
  5
2E7C7
  8
0
 10
6556.3103833140658026
 20
287.4870601840016775
 30
0.0
 40
0.01
 50
269.2840211846952911
 51
0.0000000000097707
  0
ARC
  5
2E7C8
  8
0
 10
6555.2412743979994048
 20
287.4054132473007144
 30
0.0
 40
0.085
 50
89.2840211846952911
 51
135.0000000000069065
  0
ARC
  5
2E7C9
  8
0
 10
6555.0730426995323796
 20
287.2371815488323818
 30
0.0
 40
0.085
 50
135.0000000000046043
 51
180.7159788147185111
  0
LINE
  5
2E7CA
  8
0
 10
6554.7455801644664461
 20
287.6228757823673732
 30
0.0
 11
6554.7455801644664461
 21
286.3965929108421165
 31
0.0
  0
ARC
  5
2E7CB
  8
0
 10
6554.8555801644652092
 20
287.6228757823673732
 30
0.0
 40
0.11
 50
90.0
 51
180.0
  0
ARC
  5
2E7CC
  8
0
 10
6556.3103833140658026
 20
287.7428757823673777
 30
0.0
 40
0.01
 50
270.0
 51
359.9999999999869829
  0
LINE
  5
2E7CD
  8
0
 10
6556.3103833140658026
 20
287.8347780235674236
 30
0.0
 11
6554.7356779232650297
 21
287.8347780235674236
 31
0.0
  0
ARC
  5
2E7CE
  8
0
 10
6556.3103833140658026
 20
287.8447780235674145
 30
0.0
 40
0.01
 50
270.0
 51
0.0
  0
LINE
  5
2E7CF
  8
0
 10
6554.6436779232653862
 20
287.7427780235673822
 30
0.0
 11
6554.6436779232653862
 21
286.5361885862180884
 31
0.0
  0
ARC
  5
2E7D0
  8
0
 10
6554.7356779232650297
 20
287.7427780235673822
 30
0.0
 40
0.092
 50
90.0
 51
180.0
  0
LINE
  5
2E7D1
  8
0
 10
6554.2455802374288396
 20
287.1539129319310177
 30
0.0
 11
6554.2455802374288396
 21
284.7175339753360959
 31
0.0
  0
ARC
  5
2E7D2
  8
0
 10
6554.1760019978019045
 20
287.253602107189181
 30
0.0
 40
0.1173139085115077
 50
318.7698799552288165
 51
337.3395189679173996
  0
ARC
  5
2E7D3
  8
0
 10
6553.9841816746766199
 20
287.3433316350361793
 30
0.0
 40
0.3290169432445554
 50
335.7894241158991804
 51
344.3213696778078088
  0
ARC
  5
2E7D4
  8
0
 10
6553.9807636747918878
 20
287.3434254582211906
 30
0.0
 40
0.3323341680138208
 50
344.4650432675343268
 51
352.9376295783673072
  0
ARC
  5
2E7D5
  8
0
 10
6553.9165943036396129
 20
287.3479197470106783
 30
0.0
 40
0.396584079355398
 50
353.4330945939851745
 51
358.9040646530032745
  0
ARC
  5
2E7D6
  8
0
 10
6553.5318505863160681
 20
288.4210924080700806
 30
0.0
 40
1.4442755975811561
 50
300.0719497896803887
 51
300.4702725251693209
  0
ARC
  5
2E7D7
  8
0
 10
6554.2655802374301857
 20
287.1539129319310177
 30
0.0
 40
0.02
 50
120.0719497896819945
 51
180.0000000000065086
  0
ARC
  5
2E7D8
  8
0
 10
6554.2737244819800253
 20
287.2064689511436768
 30
0.0
 40
0.0200646848121733
 50
183.1649161408107886
 51
265.6530053910059905
  0
LINE
  5
2E7D9
  8
0
 10
6554.699796263988901
 20
286.400706926942803
 30
0.0
 11
6555.2315210977631068
 21
285.8689820931704162
 31
0.0
  0
ARC
  5
2E7DA
  8
0
 10
6554.8461801644652951
 20
286.3965929108421165
 30
0.0
 40
0.1006
 50
180.0
 51
224.9999999999953957
  0
ARC
  5
2E7DB
  8
0
 10
6554.8352779232664034
 20
286.5361885862180884
 30
0.0
 40
0.1916
 50
180.0
 51
224.9999999999953957
  0
LINE
  5
2E7DC
  8
0
 10
6555.0843753236158591
 20
286.023198935000778
 30
0.0
 11
6554.7757478051917133
 21
286.3318291670328222
 31
0.0
  0
ARC
  5
2E7DD
  8
0
 10
6555.0879108730659937
 20
286.0267344533637015
 30
0.0
 40
0.005
 50
224.999748114559992
 51
0.0
  0
ARC
  5
2E7DE
  8
0
 10
6554.9833598054683534
 20
286.1313819918083254
 30
0.0
 40
0.0072177417535707
 50
270.4041464822037142
 51
334.6930172333832161
  0
ARC
  5
2E7DF
  8
0
 10
6554.8485801644656021
 20
286.4046608046816118
 30
0.0
 40
0.103
 50
180.0
 51
224.9997161544524999
  0
LINE
  5
2E7E0
  8
0
 10
6555.2455799722647498
 20
285.8350409676734785
 30
0.0
 11
6555.2455799722647498
 21
284.7175263514999983
 31
0.0
  0
ARC
  5
2E7E1
  8
0
 10
6555.1975799722649754
 20
285.8350409676734785
 30
0.0
 40
0.048
 50
0.0000000000032569
 51
44.9999999999953886
  0
LINE
  5
2E7E2
  8
0
 10
6554.3798447295994265
 20
284.5832694831673848
 30
0.0
 11
6555.111323103932591
 21
284.5832694831673848
 31
0.0
  0
LINE
  5
2E7E3
  8
0
 10
6554.3522675651320242
 20
284.5946923187011066
 30
0.0
 11
6554.2570030729630162
 21
284.6899568108697736
 31
0.0
  0
LINE
  5
2E7E4
  8
0
 10
6555.1389002683990839
 20
284.5946923187011066
 30
0.0
 11
6555.2341571367323922
 21
284.689949187033676
 31
0.0
  0
ARC
  5
2E7E5
  8
0
 10
6554.3798447295994265
 20
284.6222694831673721
 30
0.0
 40
0.039
 50
224.9999999999930935
 51
270.0
  0
ARC
  5
2E7E6
  8
0
 10
6555.111323103932591
 20
284.6222694831673721
 30
0.0
 40
0.039
 50
270.0
 51
315.0000000000046043
  0
ARC
  5
2E7E7
  8
0
 10
6555.2065799722649899
 20
284.7175263514999983
 30
0.0
 40
0.039
 50
315.0000000000022737
 51
0.0000000000032569
  0
ARC
  5
2E7E8
  8
0
 10
6554.2845802374304185
 20
284.7175339753360959
 30
0.0
 40
0.039
 50
179.9999999999934914
 51
225.0000000000023022
  0
LINE
  5
2E7E9
  8
0
 10
6554.2570030729630162
 20
284.6899568108697736
 30
0.0
 11
6555.2341647584607927
 21
284.6899568108697736
 31
0.0
  0
LINE
  5
2E7EA
  8
0
 10
6555.1445016196166762
 20
288.165336094167003
 30
0.0
 11
6554.7456058364650744
 21
288.165336094167003
 31
0.0
  0
ARC
  5
2E7EB
  8
0
 10
6554.7456058364650744
 20
287.7328360941669985
 30
0.0
 40
0.4325000000000001
 50
90.0
 51
180.0
  0
LINE
  5
2E7ED
  8
0
 10
6558.2667622941326044
 20
289.7182311214352239
 30
0.0
 11
6558.2667622941326044
 21
285.7475204432994929
 31
0.0
  0
ARC
  5
2E7EE
  8
0
 10
6555.0186564521991386
 20
288.6970964111068838
 30
0.0
 40
0.4861407012294269
 50
256.3106008472047961
 51
283.6893991527952039
  0
ARC
  5
2E7EF
  8
0
 10
6553.7826791600327851
 20
287.4594192808319804
 30
0.0
 40
0.4848176415730611
 50
346.2935583175774923
 51
13.7064416824224793
  0
LINE
  5
2E7F0
  8
0
 10
6555.0055797077657189
 20
286.101995243662202
 30
0.0
 11
6555.0055797077657189
 21
286.0949234831672925
 31
0.0
  0
LINE
  5
2E7F1
  8
0
 10
6554.9571167288459037
 20
286.1504586486927906
 30
0.0
 11
6554.9591881243350144
 21
286.1413150665966896
 31
0.0
  0
ENDSEC
  0
EOF
