  0
SECTION
  2
HEADER
  9
$ACADVER
  1
AC1009
  9
$INSBASE
 10
6561.475446248418848
 20
287.9422670395240971
 30
0.0
  9
$EXTMIN
 10
6559.4754134565173445
 20
283.5326607943879935
 30
0.0
  9
$EXTMAX
 10
6563.4754134565191634
 20
287.9472095930943851
 30
0.0
  9
$LIMMIN
 10
0.0
 20
0.0
  9
$LIMMAX
 10
11.6929133858000007
 20
8.2677165353999982
  9
$ORTHOMODE
 70
     0
  9
$REGENMODE
 70
     1
  9
$FILLMODE
 70
     1
  9
$QTEXTMODE
 70
     0
  9
$MIRRTEXT
 70
     0
  9
$DRAGMODE
 70
     2
  9
$LTSCALE
 40
0.6431102362
  9
$OSMODE
 70
  4095
  9
$ATTMODE
 70
     1
  9
$TEXTSIZE
 40
0.2
  9
$TRACEWID
 40
0.05
  9
$TEXTSTYLE
  7
STANDARD
  9
$CLAYER
  8
0
  9
$CELTYPE
  6
BYLAYER
  9
$CECOLOR
 62
   256
  9
$DIMSCALE
 40
1.0
  9
$DIMASZ
 40
0.1875
  9
$DIMEXO
 40
0.0625
  9
$DIMDLI
 40
0.4443307087
  9
$DIMRND
 40
0.0
  9
$DIMDLE
 40
0.0
  9
$DIMEXE
 40
0.125
  9
$DIMTP
 40
0.01
  9
$DIMTM
 40
0.01
  9
$DIMTXT
 40
2.0
  9
$DIMCEN
 40
0.1052362205
  9
$DIMTSZ
 40
0.0
  9
$DIMTOL
 70
     1
  9
$DIMLIM
 70
     0
  9
$DIMTIH
 70
     1
  9
$DIMTOH
 70
     1
  9
$DIMSE1
 70
     0
  9
$DIMSE2
 70
     0
  9
$DIMTAD
 70
     0
  9
$DIMZIN
 70
     0
  9
$DIMBLK
  1

  9
$DIMASO
 70
     1
  9
$DIMSHO
 70
     1
  9
$DIMPOST
  1
\X
  9
$DIMAPOST
  1

  9
$DIMALT
 70
     1
  9
$DIMALTD
 70
     2
  9
$DIMALTF
 40
25.3999999999999986
  9
$DIMLFAC
 40
1.0
  9
$DIMTOFL
 70
     0
  9
$DIMTVP
 40
0.0
  9
$DIMTIX
 70
     0
  9
$DIMSOXD
 70
     0
  9
$DIMSAH
 70
     0
  9
$DIMBLK1
  1

  9
$DIMBLK2
  1

  9
$DIMSTYLE
  2
STANDARD
  9
$DIMCLRD
 70
     0
  9
$DIMCLRE
 70
     0
  9
$DIMCLRT
 70
     0
  9
$DIMTFAC
 40
1.0
  9
$DIMGAP
 40
0.09
  9
$LUNITS
 70
     2
  9
$LUPREC
 70
     4
  9
$SKETCHINC
 40
0.1
  9
$FILLETRAD
 40
0.0
  9
$AUNITS
 70
     0
  9
$AUPREC
 70
     0
  9
$MENU
  1
.
  9
$ELEVATION
 40
0.0
  9
$PELEVATION
 40
0.0
  9
$THICKNESS
 40
0.0
  9
$LIMCHECK
 70
     0
  9
$BLIPMODE
 70
     0
  9
$CHAMFERA
 40
0.0
  9
$CHAMFERB
 40
0.0
  9
$SKPOLY
 70
     0
  9
$TDCREATE
 40
2458060.468368056230247
  9
$TDUPDATE
 40
2460727.9701967588625848
  9
$TDINDWG
 40
0.7973103009
  9
$TDUSRTIMER
 40
0.7973103009
  9
$USRTIMER
 70
     1
  9
$ANGBASE
 50
0.0
  9
$ANGDIR
 70
     0
  9
$PDMODE
 70
     0
  9
$PDSIZE
 40
0.3125
  9
$PLINEWID
 40
0.0
  9
$COORDS
 70
     1
  9
$SPLFRAME
 70
     0
  9
$SPLINETYPE
 70
     6
  9
$SPLINESEGS
 70
     8
  9
$ATTDIA
 70
     1
  9
$ATTREQ
 70
     1
  9
$HANDLING
 70
     1
  9
$HANDSEED
  5
2EA16
  9
$SURFTAB1
 70
     6
  9
$SURFTAB2
 70
     6
  9
$SURFTYPE
 70
     6
  9
$SURFU
 70
     6
  9
$SURFV
 70
     6
  9
$UCSNAME
  2

  9
$UCSORG
 10
0.0
 20
0.0
 30
0.0
  9
$UCSXDIR
 10
1.0
 20
0.0
 30
0.0
  9
$UCSYDIR
 10
0.0
 20
1.0
 30
0.0
  9
$PUCSNAME
  2

  9
$PUCSORG
 10
0.0
 20
0.0
 30
0.0
  9
$PUCSXDIR
 10
1.0
 20
0.0
 30
0.0
  9
$PUCSYDIR
 10
0.0
 20
1.0
 30
0.0
  9
$USERI1
 70
     0
  9
$USERI2
 70
     0
  9
$USERI3
 70
     0
  9
$USERI4
 70
     0
  9
$USERI5
 70
     0
  9
$USERR1
 40
0.0
  9
$USERR2
 40
0.0
  9
$USERR3
 40
0.0
  9
$USERR4
 40
0.0
  9
$USERR5
 40
0.0
  9
$WORLDVIEW
 70
     1
  9
$SHADEDGE
 70
     3
  9
$SHADEDIF
 70
    70
  9
$TILEMODE
 70
     1
  9
$MAXACTVP
 70
    64
  9
$PLIMCHECK
 70
     0
  9
$PEXTMIN
 10
1.0000000000000000E+20
 20
1.0000000000000000E+20
 30
1.0000000000000000E+20
  9
$PEXTMAX
 10
-1.0000000000000000E+20
 20
-1.0000000000000000E+20
 30
-1.0000000000000000E+20
  9
$PLIMMIN
 10
0.0
 20
0.0
  9
$PLIMMAX
 10
12.0
 20
9.0
  9
$UNITMODE
 70
     0
  9
$VISRETAIN
 70
     1
  9
$PLINEGEN
 70
     0
  9
$PSLTSCALE
 70
     1
  0
ENDSEC
  0
SECTION
  2
TABLES
  0
TABLE
  2
VPORT
 70
     1
  0
VPORT
  2
*ACTIVE
 70
     0
 10
0.0
 20
0.0
 11
1.0
 21
1.0
 12
2650.1100570112062087
 22
153.1603300912020984
 13
0.0
 23
0.0
 14
1.0
 24
1.0
 15
0.0
 25
0.0
 16
0.0
 26
0.0
 36
60.4960186965801583
 17
3911.3653564453120453
 27
132.5796051025390057
 37
0.0
 40
4.4442764000445996
 41
1.682022471910112
 42
50.0
 43
0.0
 44
0.0
 50
0.0
 51
0.0
 71
     0
 72
   100
 73
     1
 74
     1
 75
     0
 76
     0
 77
     0
 78
     0
  0
ENDTAB
  0
TABLE
  2
LTYPE
 70
     2
  0
LTYPE
  2
CONTINUOUS
 70
     0
  3
Solid line
 72
    65
 73
     0
 40
0.0
  0
LTYPE
  2
PHANTOM2
 70
     0
  3
___ _ _ ___ _ _ ___ _ _ ___ _ _
 72
    65
 73
     6
 40
1.25
 49
0.625
 49
-0.125
 49
0.125
 49
-0.125
 49
0.125
 49
-0.125
  0
ENDTAB
  0
TABLE
  2
LAYER
 70
     2
  0
LAYER
  2
0
 70
     0
 62
   255
  6
CONTINUOUS
  0
LAYER
  2
DEFPOINTS
 70
     0
 62
     7
  6
CONTINUOUS
  0
ENDTAB
  0
TABLE
  2
STYLE
 70
     1
  0
STYLE
  2
STANDARD
 70
     0
 40
0.0
 41
0.8
 50
0.0
 71
     0
 42
0.2
  3
txt
  4

  0
ENDTAB
  0
TABLE
  2
VIEW
 70
     0
  0
ENDTAB
  0
TABLE
  2
UCS
 70
     0
  0
ENDTAB
  0
TABLE
  2
APPID
 70
    11
  0
APPID
  2
ACAD
 70
     0
  0
APPID
  2
ACAD_MLEADERVER
 70
     0
  0
APPID
  2
ACAD_EXEMPT_FROM_CAD_STANDARDS
 70
     0
  0
APPID
  2
ACAD_NAV_VCDISPLAY
 70
     0
  0
APPID
  2
ACAECLAYERSTANDARD
 70
     0
  0
APPID
  2
ACCMTRANSPARENCY
 70
     0
  0
APPID
  2
ACAD_DSTYLE_DIMJAG
 70
     0
  0
APPID
  2
ACAD_DSTYLE_DIMTALN
 70
     0
  0
APPID
  2
ACDBATTR
 70
     0
  0
APPID
  2
ACADANNOTATIVE
 70
     0
  0
APPID
  2
DCO15
 70
     0
  0
ENDTAB
  0
TABLE
  2
DIMSTYLE
 70
     1
  0
DIMSTYLE
  2
STANDARD
 70
     0
  3

  4

  5

  6

  7

 40
1.0
 41
0.1875
 42
0.0625
 43
0.38
 44
0.125
 45
0.0
 46
0.0
 47
0.01
 48
0.01
140
0.15625
141
0.09
142
0.0
143
25.3999999999999986
144
1.0
145
0.0
146
1.0
147
0.09
 71
     1
 72
     0
 73
     1
 74
     1
 75
     0
 76
     0
 77
     0
 78
     4
170
     0
171
     2
172
     0
173
     0
174
     0
175
     0
176
     0
177
     0
178
     0
  0
ENDTAB
  0
ENDSEC
  0
SECTION
  2
BLOCKS
  0
BLOCK
  8
0
  2
$MODEL_SPACE
 70
     0
 10
0.0
 20
0.0
 30
0.0
  3
$MODEL_SPACE
  1

  0
ENDBLK
  5
21
  8
0
  0
BLOCK
 67
     1
  8
0
  2
$PAPER_SPACE
 70
     0
 10
0.0
 20
0.0
 30
0.0
  3
$PAPER_SPACE
  1

  0
ENDBLK
  5
1D
 67
     1
  8
0
  0
ENDSEC
  0
SECTION
  2
ENTITIES
  0
ATTDEF
  5
26A5B
  8
DEFPOINTS
 10
6561.4717334108827345
 20
287.9462095930945225
 30
0.0
 40
0.001
  1
P34592-BN
  3

  2
MODELNUMBER
 70
     0
1001
ACDBATTR
1070
     0
1070
     1
  0
ATTDEF
  5
26A5C
  8
DEFPOINTS
 10
6561.4716076012273334
 20
287.9445427527152788
 30
0.0
 40
0.001
  1
VICE
  3

  2
TRADENAME
 70
     0
1001
ACDBATTR
1070
     0
1070
     1
  0
ATTDEF
  5
26A5D
  8
DEFPOINTS
 10
6561.4717334108827345
 20
287.9428762597611922
 30
0.0
 40
0.001
  1
VALVE TRIM
  3

  2
PRODUCT
 70
     0
1001
ACDBATTR
1070
     0
1070
     1
  0
LINE
  5
2E8B1
  8
0
 10
6559.4754134565173445
 20
287.5891981901427812
 30
0.0
 11
6559.4754134565173445
 21
287.9422670395240971
 31
0.0
  0
LINE
  5
2E8B2
  8
0
 10
6560.4124850276175493
 20
285.7548883134293192
 30
0.0
 11
6560.4124850276175493
 21
286.248015052124174
 31
0.0
  0
LINE
  5
2E8B3
  8
0
 10
6560.4124850276175493
 20
286.3080150710242151
 30
0.0
 11
6560.4124850276175493
 21
287.3274812005802801
 31
0.0
  0
LINE
  5
2E8B4
  8
0
 10
6560.993437016290045
 20
284.165997884578303
 30
0.0
 11
6560.993437016290045
 21
285.6074638710240947
 31
0.0
  0
LINE
  5
2E8B5
  8
0
 10
6561.2506216947176654
 20
283.6066798815787138
 30
0.0
 11
6561.2506216947176654
 21
284.4200163663311969
 31
0.0
  0
LINE
  5
2E8B6
  8
0
 10
6560.9754839650422582
 20
284.0218626388586927
 30
0.0
 11
6560.9754839650422582
 21
284.0436792763895255
 31
0.0
  0
LINE
  5
2E8B7
  8
0
 10
6562.5184074692188005
 20
286.2880150710241765
 30
0.0
 11
6560.4324850276179859
 21
286.2880150710241765
 31
0.0
  0
LINE
  5
2E8B8
  8
0
 10
6560.4224850276177676
 20
286.2580150521242217
 30
0.0
 11
6562.5284074692190188
 21
286.2580150521242217
 31
0.0
  0
LINE
  5
2E8B9
  8
0
 10
6560.8035816331857859
 20
286.2580150521242217
 30
0.0
 11
6560.7911552071436745
 21
286.2704414780661182
 31
0.0
  0
ARC
  5
2E8BA
  8
0
 10
6560.7487288004440416
 20
286.2280150710241742
 30
0.0
 40
0.06
 50
45.0000002305224527
 51
90.0
  0
ARC
  5
2E8BB
  8
0
 10
6560.4324850276179859
 20
286.3080150710242151
 30
0.0
 40
0.02
 50
180.0000000000032117
 51
270.0
  0
ARC
  5
2E8BC
  8
0
 10
6560.4224850276177676
 20
286.248015052124174
 30
0.0
 40
0.01
 50
90.0
 51
179.9999999999901945
  0
LINE
  5
2E8BD
  8
0
 10
6560.826586683365349
 20
285.6074638710240947
 30
0.0
 11
6562.1250871935890245
 21
285.6074638710240947
 31
0.0
  0
LINE
  5
2E8BE
  8
0
 10
6560.7866453272627041
 20
285.6133254159603894
 30
0.0
 11
6560.4405635209241154
 21
285.7171499577921736
 31
0.0
  0
ARC
  5
2E8BF
  8
0
 10
6560.8261959932988248
 20
285.7438153168910162
 30
0.0
 40
0.136352005591027
 50
253.1382747526903927
 51
270.1641701007246752
  0
ARC
  5
2E8C0
  8
0
 10
6560.4518850276172088
 20
285.7548883134293192
 30
0.0
 40
0.0394000000000023
 50
180.0000000000032117
 51
253.3007557629622966
  0
LINE
  5
2E8C2
  8
0
 10
6559.4754134565173445
 20
287.9422670395240971
 30
0.0
 11
6563.4754134565191634
 21
287.9422670395240971
 31
0.0
  0
ARC
  5
2E8C3
  8
0
 10
6561.4805350637279844
 20
284.0379421690020081
 30
0.0
 40
0.5053069993312241
 50
181.8235345406488932
 51
269.4229793590213262
  0
ARC
  5
2E8C4
  8
0
 10
6561.2308942936815583
 20
283.6217662812683784
 30
0.0
 40
0.02
 50
239.0427997988116999
 51
329.9458934245631099
  0
ARC
  5
2E8C5
  8
0
 10
6561.4754751489190312
 20
284.0327709576241091
 30
0.0
 40
0.5001101632362009
 50
164.5501300760546997
 51
178.7501749786976006
  0
ARC
  5
2E8C6
  8
0
 10
6561.5058500766454017
 20
283.1841690047476163
 30
0.0
 40
1.395296312982317
 50
91.2485870613475356
 51
95.0818747798491586
  0
ARC
  5
2E8C7
  8
0
 10
6561.3976752392518392
 20
284.435004686850391
 30
0.0
 40
0.1398286873825597
 50
96.33107985002475
 51
132.6728268179797112
  0
ARC
  5
2E8C8
  8
0
 10
6561.413729691640583
 20
284.4175900791482832
 30
0.0
 40
0.1635144215483509
 50
132.6728268179797112
 51
162.768421483178912
  0
ARC
  5
2E8C9
  8
0
 10
6561.4290043326145678
 20
284.4166671305897012
 30
0.0
 40
0.1784140770319539
 50
163.9385269633069129
 51
178.9243654522859117
  0
ARC
  5
2E8CA
  8
0
 10
6561.2706216947190114
 20
283.6066798815787138
 30
0.0
 40
0.02
 50
180.0
 51
244.7367411114452125
  0
LINE
  5
2E8CB
  8
0
 10
6561.2506216947176654
 20
283.6159260475213273
 30
0.0
 11
6561.248205350657372
 21
283.611749929317682
 31
0.0
  0
LINE
  5
2E8CC
  8
0
 10
6561.2472146959098609
 20
283.6102058110740813
 30
0.0
 11
6561.2506216947176654
 21
283.6079493882147062
 31
0.0
  0
LINE
  5
2E8CD
  8
0
 10
6560.4405635209341199
 20
285.7171499577893883
 30
0.0
 11
6562.5103289759026666
 21
285.7171499577893883
 31
0.0
  0
ARC
  5
2E8CE
  8
0
 10
6559.4002238194752863
 20
283.9527859602466719
 30
0.0
 40
1.5938897562979031
 50
358.320457598663495
 51
1.3061658641341261
  0
ARC
  5
2E8CF
  8
0
 10
6561.0318123258275591
 20
283.904944613536486
 30
0.0
 40
0.0384
 50
178.320457598666593
 51
196.0725359557386867
  0
ARC
  5
2E8D0
  8
0
 10
6565.9095444261402008
 20
284.0442488981336737
 30
0.0
 40
4.9161541323393827
 50
179.880196655578203
 51
180.6425352778950923
  0
LINE
  5
2E8D1
  8
0
 10
6560.993437016290045
 20
284.165997884578303
 30
0.0
 11
6560.9934010408178438
 21
284.0545283861267762
 31
0.0
  0
LINE
  5
2E8D2
  8
0
 10
6559.7323446070358841
 20
287.3322670395240834
 30
0.0
 11
6563.2184823059997143
 21
287.3322670395240834
 31
0.0
  0
LINE
  5
2E8D3
  8
0
 10
6559.696989267969002
 20
287.3469117004732993
 30
0.0
 11
6559.4900581174506442
 21
287.5538428510920994
 31
0.0
  0
ARC
  5
2E8D4
  8
0
 10
6559.7323446070358841
 20
287.3822670395242085
 30
0.0
 40
0.0500000000000081
 50
224.9999999861429956
 51
270.0000000932773219
  0
ARC
  5
2E8D5
  8
0
 10
6559.5254134565184359
 20
287.5891981901427812
 30
0.0
 40
0.05
 50
180.0
 51
224.9999999861475999
  0
LINE
  5
2E8D6
  8
0
 10
6559.4754134565173445
 20
287.5891981901427812
 30
0.0
 11
6560.3270569360784066
 21
287.5891981901427812
 31
0.0
  0
LINE
  5
2E8D7
  8
0
 10
6560.5321975340157223
 20
287.3913221576240744
 30
0.0
 11
6562.4183750868742209
 21
287.3913221576240744
 31
0.0
  0
LINE
  5
2E8D8
  8
0
 10
6560.5321975340157223
 20
287.3913221576240744
 30
0.0
 11
6560.4299359364731572
 21
287.5359437142503793
 31
0.0
  0
ARC
  5
2E8D9
  8
0
 10
6560.3270569360784066
 20
287.4631981901428048
 30
0.0
 40
0.126
 50
35.2640500640492007
 51
90.0
  0
LINE
  5
2E8DA
  8
0
 10
6563.4754134565191634
 20
287.5891981901427812
 30
0.0
 11
6563.4754134565191634
 21
287.9422670395240971
 31
0.0
  0
LINE
  5
2E8DB
  8
0
 10
6562.5384074692183276
 20
285.7548883134293192
 30
0.0
 11
6562.5384074692183276
 21
286.248015052124174
 31
0.0
  0
LINE
  5
2E8DC
  8
0
 10
6562.5384074692183276
 20
286.3080139169525751
 30
0.0
 11
6562.5384074692183276
 21
287.3272706711916271
 31
0.0
  0
LINE
  5
2E8DD
  8
0
 10
6561.9574554805449225
 20
284.165997884578303
 30
0.0
 11
6561.9574554805449225
 21
285.6074638710240947
 31
0.0
  0
LINE
  5
2E8DE
  8
0
 10
6561.7002708021191211
 20
283.6066798815787138
 30
0.0
 11
6561.7002708021191211
 21
284.4200163663311969
 31
0.0
  0
LINE
  5
2E8DF
  8
0
 10
6562.147686297123073
 20
286.2580150521242217
 30
0.0
 11
6562.1601127231660939
 21
286.2704414780661182
 31
0.0
  0
ARC
  5
2E8E0
  8
0
 10
6562.2025391298666364
 20
286.2280150710241742
 30
0.0
 40
0.06
 50
90.0
 51
134.9999997694775118
  0
ARC
  5
2E8E1
  8
0
 10
6562.5184086233130074
 20
286.3080139168956748
 30
0.0
 40
0.0199988459048697
 50
269.9966935702043997
 51
0.0000001628574272
  0
ARC
  5
2E8E2
  8
0
 10
6562.5284074692190188
 20
286.248015052124174
 30
0.0
 40
0.01
 50
0.0000000000097707
 51
90.0
  0
LINE
  5
2E8E3
  8
0
 10
6562.1642471695722634
 20
285.6133254159603894
 30
0.0
 11
6562.5103289759117615
 21
285.7171499577921736
 31
0.0
  0
ARC
  5
2E8E4
  8
0
 10
6562.1246965035370522
 20
285.7438153168910162
 30
0.0
 40
0.136352005591027
 50
270.1641700946798892
 51
286.8617252473096073
  0
ARC
  5
2E8E5
  8
0
 10
6562.4990074692168491
 20
285.7548883134293192
 30
0.0
 40
0.0394000000000023
 50
286.6992442370375898
 51
359.9999999999968168
  0
ARC
  5
2E8E7
  8
0
 10
6561.4450424201922942
 20
283.1841690047476163
 30
0.0
 40
1.395296312982317
 50
84.9181252201508272
 51
88.7514129386524644
  0
ARC
  5
2E8E8
  8
0
 10
6561.5532172575858567
 20
284.435004686850391
 30
0.0
 40
0.1398286873825597
 50
47.3271731820202604
 51
83.6689201499752642
  0
ARC
  5
2E8E9
  8
0
 10
6561.5371628051943844
 20
284.4175900791482832
 30
0.0
 40
0.1635144215483509
 50
17.23157851682112
 51
47.3271731820202604
  0
ARC
  5
2E8EA
  8
0
 10
6561.5218881642222186
 20
284.4166671305897012
 30
0.0
 40
0.1784140770319539
 50
1.0756345477140581
 51
16.0614730366930694
  0
ARC
  5
2E8EB
  8
0
 10
6561.4754173479177553
 20
284.0407709576242041
 30
0.0
 40
0.4999999999999977
 50
270.0033117533744758
 51
295.2632588885547875
  0
ARC
  5
2E8EC
  8
0
 10
6561.680270802117775
 20
283.6066798815787138
 30
0.0
 40
0.02
 50
295.2632588885547875
 51
0.0
  0
LINE
  5
2E8ED
  8
0
 10
6561.7002708021191211
 20
283.6159260475213273
 30
0.0
 11
6561.7026871461794144
 21
283.611749929317682
 31
0.0
  0
LINE
  5
2E8EE
  8
0
 10
6561.7036778009269256
 20
283.6102058110740813
 30
0.0
 11
6561.7002708021191211
 21
283.6079493882147062
 31
0.0
  0
LINE
  5
2E8EF
  8
0
 10
6563.2538376450684154
 20
287.3469117004732993
 30
0.0
 11
6563.4607687955858637
 21
287.5538428510920994
 31
0.0
  0
ARC
  5
2E8F0
  8
0
 10
6563.2184823059997143
 20
287.3822670395242085
 30
0.0
 40
0.0500000000000081
 50
269.9999999067226781
 51
315.0000000138568907
  0
ARC
  5
2E8F1
  8
0
 10
6563.4254134565180721
 20
287.5891981901427812
 30
0.0
 40
0.05
 50
315.0000000138522864
 51
0.0
  0
LINE
  5
2E8F2
  8
0
 10
6563.4754134565191634
 20
287.5891981901427812
 30
0.0
 11
6562.6235156848106271
 21
287.5891981901427812
 31
0.0
  0
LINE
  5
2E8F3
  8
0
 10
6562.4183750868742209
 20
287.3913221576240744
 30
0.0
 11
6562.520636684414967
 21
287.5359437142503793
 31
0.0
  0
ARC
  5
2E8F4
  8
0
 10
6562.6235156848106271
 20
287.4631981901428048
 30
0.0
 40
0.126
 50
90.0
 51
144.7359499359507993
  0
ARC
  5
2E8F5
  8
0
 10
6561.4754751489190312
 20
284.0407709576242041
 30
0.0
 40
0.4999999999999977
 50
244.7367411114452125
 51
269.9966882466255242
  0
LINE
  5
2E8F6
  8
0
 10
6561.9754085317954377
 20
284.0218626388586927
 30
0.0
 11
6561.9754085317954377
 21
284.0436792763895255
 31
0.0
  0
ARC
  5
2E8F7
  8
0
 10
6561.4703574331078926
 20
284.0379421690020081
 30
0.0
 40
0.5053069993312241
 50
270.5770206409786738
 51
358.1764654593511068
  0
ARC
  5
2E8F8
  8
0
 10
6561.4754173479177553
 20
284.0327709576241091
 30
0.0
 40
0.5001101632362009
 50
1.2498250213023829
 51
15.4498699239452701
  0
ARC
  5
2E8F9
  8
0
 10
6563.5506686773605907
 20
283.9527859602466719
 30
0.0
 40
1.5938897562979031
 50
178.6938341358658988
 51
181.679542401336505
  0
ARC
  5
2E8FA
  8
0
 10
6561.9190801710083178
 20
283.904944613536486
 30
0.0
 40
0.0384
 50
343.9274640442612281
 51
1.679542401333318
  0
ARC
  5
2E8FB
  8
0
 10
6557.0413480706956761
 20
284.0442488981336737
 30
0.0
 40
4.9161541323393827
 50
359.3574647221049077
 51
0.1198033444217468
  0
LINE
  5
2E8FC
  8
0
 10
6561.9574554805449225
 20
284.165997884578303
 30
0.0
 11
6561.9574914560171237
 21
284.0545283861267762
 31
0.0
  0
ARC
  5
2E8FD
  8
0
 10
6561.7199982031552281
 20
283.6217662812683784
 30
0.0
 40
0.02
 50
210.0541065754368049
 51
300.9572002011883001
  0
ARC
  5
2E8FF
  8
0
 10
6562.533411907228583
 20
287.3272714814731899
 30
0.0
 40
0.0049955620546965
 50
359.9907066077798845
 51
90.0725402548706455
  0
ARC
  5
2E900
  8
0
 10
6560.4173699515404223
 20
287.3273813656771836
 30
0.0
 40
0.0048859439966471
 50
89.3974853551304278
 51
178.8291890552382029
  0
CIRCLE
  5
2E901
  8
0
 10
6561.475446248418848
 20
284.3057709576240768
 30
0.0
 40
0.0468053358999999
  0
CIRCLE
  5
2E902
  8
0
 10
6561.475446248418848
 20
284.3057709576240768
 30
0.0
 40
0.0971351769999998
  0
CIRCLE
  5
2E903
  8
0
 10
6561.475446248418848
 20
284.3057709576240768
 30
0.0
 40
0.1179712312000003
  0
LINE
  5
2E904
  8
0
 10
6561.475446248418848
 20
284.3525762935241801
 30
0.0
 11
6561.4348784984167651
 21
284.3291161311864244
 31
0.0
  0
LINE
  5
2E905
  8
0
 10
6561.4348784984167651
 20
284.3291161311864244
 30
0.0
 11
6561.4348784984167651
 21
284.2824257840620135
 31
0.0
  0
LINE
  5
2E906
  8
0
 10
6561.4348784984167651
 20
284.2824257840620135
 30
0.0
 11
6561.475446248071421
 21
284.2589656217242009
 31
0.0
  0
LINE
  5
2E907
  8
0
 10
6561.475446248418848
 20
284.2589656217242009
 30
0.0
 11
6561.5159808584176062
 21
284.2823683220731255
 31
0.0
  0
LINE
  5
2E908
  8
0
 10
6561.5159808585940482
 20
284.2823683223778062
 30
0.0
 11
6561.5159808436737876
 21
284.3291736340410125
 31
0.0
  0
LINE
  5
2E909
  8
0
 10
6561.475446248418848
 20
284.3525762935241801
 30
0.0
 11
6561.5159808435955711
 21
284.329173634174424
 31
0.0
  0
ENDSEC
  0
EOF
