  0
SECTION
  2
HEADER
  9
$ACADVER
  1
AC1009
  9
$INSBASE
 10
6559.634806468718125
 20
285.5327785898205093
 30
0.0
  9
$EXTMIN
 10
6555.2252002235800319
 20
282.3831722906205073
 30
0.0
  9
$EXTMAX
 10
6559.6465901225574271
 20
287.5327785898205093
 30
0.0
  9
$LIMMIN
 10
0.0
 20
0.0
  9
$LIMMAX
 10
11.6929133858000007
 20
8.2677165353999982
  9
$ORTHOMODE
 70
     0
  9
$REGENMODE
 70
     1
  9
$FILLMODE
 70
     1
  9
$QTEXTMODE
 70
     0
  9
$MIRRTEXT
 70
     0
  9
$DRAGMODE
 70
     2
  9
$LTSCALE
 40
0.6431102362
  9
$OSMODE
 70
  4095
  9
$ATTMODE
 70
     1
  9
$TEXTSIZE
 40
0.2
  9
$TRACEWID
 40
0.05
  9
$TEXTSTYLE
  7
STANDARD
  9
$CLAYER
  8
0
  9
$CELTYPE
  6
BYLAYER
  9
$CECOLOR
 62
   256
  9
$DIMSCALE
 40
1.0
  9
$DIMASZ
 40
0.1875
  9
$DIMEXO
 40
0.0625
  9
$DIMDLI
 40
0.4443307087
  9
$DIMRND
 40
0.0
  9
$DIMDLE
 40
0.0
  9
$DIMEXE
 40
0.125
  9
$DIMTP
 40
0.01
  9
$DIMTM
 40
0.01
  9
$DIMTXT
 40
2.0
  9
$DIMCEN
 40
0.1052362205
  9
$DIMTSZ
 40
0.0
  9
$DIMTOL
 70
     1
  9
$DIMLIM
 70
     0
  9
$DIMTIH
 70
     1
  9
$DIMTOH
 70
     1
  9
$DIMSE1
 70
     0
  9
$DIMSE2
 70
     0
  9
$DIMTAD
 70
     0
  9
$DIMZIN
 70
     0
  9
$DIMBLK
  1

  9
$DIMASO
 70
     1
  9
$DIMSHO
 70
     1
  9
$DIMPOST
  1
\X
  9
$DIMAPOST
  1

  9
$DIMALT
 70
     1
  9
$DIMALTD
 70
     2
  9
$DIMALTF
 40
25.3999999999999986
  9
$DIMLFAC
 40
1.0
  9
$DIMTOFL
 70
     0
  9
$DIMTVP
 40
0.0
  9
$DIMTIX
 70
     0
  9
$DIMSOXD
 70
     0
  9
$DIMSAH
 70
     0
  9
$DIMBLK1
  1

  9
$DIMBLK2
  1

  9
$DIMSTYLE
  2
STANDARD
  9
$DIMCLRD
 70
     0
  9
$DIMCLRE
 70
     0
  9
$DIMCLRT
 70
     0
  9
$DIMTFAC
 40
1.0
  9
$DIMGAP
 40
0.09
  9
$LUNITS
 70
     2
  9
$LUPREC
 70
     4
  9
$SKETCHINC
 40
0.1
  9
$FILLETRAD
 40
0.0
  9
$AUNITS
 70
     0
  9
$AUPREC
 70
     0
  9
$MENU
  1
.
  9
$ELEVATION
 40
0.0
  9
$PELEVATION
 40
0.0
  9
$THICKNESS
 40
0.0
  9
$LIMCHECK
 70
     0
  9
$BLIPMODE
 70
     0
  9
$CHAMFERA
 40
0.0
  9
$CHAMFERB
 40
0.0
  9
$SKPOLY
 70
     0
  9
$TDCREATE
 40
2458060.468368056230247
  9
$TDUPDATE
 40
2460727.9742245371453464
  9
$TDINDWG
 40
0.7936991898
  9
$TDUSRTIMER
 40
0.7936991898
  9
$USRTIMER
 70
     1
  9
$ANGBASE
 50
0.0
  9
$ANGDIR
 70
     0
  9
$PDMODE
 70
     0
  9
$PDSIZE
 40
0.3125
  9
$PLINEWID
 40
0.0
  9
$COORDS
 70
     1
  9
$SPLFRAME
 70
     0
  9
$SPLINETYPE
 70
     6
  9
$SPLINESEGS
 70
     8
  9
$ATTDIA
 70
     1
  9
$ATTREQ
 70
     1
  9
$HANDLING
 70
     1
  9
$HANDSEED
  5
2E942
  9
$SURFTAB1
 70
     6
  9
$SURFTAB2
 70
     6
  9
$SURFTYPE
 70
     6
  9
$SURFU
 70
     6
  9
$SURFV
 70
     6
  9
$UCSNAME
  2

  9
$UCSORG
 10
0.0
 20
0.0
 30
0.0
  9
$UCSXDIR
 10
1.0
 20
0.0
 30
0.0
  9
$UCSYDIR
 10
0.0
 20
1.0
 30
0.0
  9
$PUCSNAME
  2

  9
$PUCSORG
 10
0.0
 20
0.0
 30
0.0
  9
$PUCSXDIR
 10
1.0
 20
0.0
 30
0.0
  9
$PUCSYDIR
 10
0.0
 20
1.0
 30
0.0
  9
$USERI1
 70
     0
  9
$USERI2
 70
     0
  9
$USERI3
 70
     0
  9
$USERI4
 70
     0
  9
$USERI5
 70
     0
  9
$USERR1
 40
0.0
  9
$USERR2
 40
0.0
  9
$USERR3
 40
0.0
  9
$USERR4
 40
0.0
  9
$USERR5
 40
0.0
  9
$WORLDVIEW
 70
     1
  9
$SHADEDGE
 70
     3
  9
$SHADEDIF
 70
    70
  9
$TILEMODE
 70
     1
  9
$MAXACTVP
 70
    64
  9
$PLIMCHECK
 70
     0
  9
$PEXTMIN
 10
1.0000000000000000E+20
 20
1.0000000000000000E+20
 30
1.0000000000000000E+20
  9
$PEXTMAX
 10
-1.0000000000000000E+20
 20
-1.0000000000000000E+20
 30
-1.0000000000000000E+20
  9
$PLIMMIN
 10
0.0
 20
0.0
  9
$PLIMMAX
 10
12.0
 20
9.0
  9
$UNITMODE
 70
     0
  9
$VISRETAIN
 70
     1
  9
$PLINEGEN
 70
     0
  9
$PSLTSCALE
 70
     1
  0
ENDSEC
  0
SECTION
  2
TABLES
  0
TABLE
  2
VPORT
 70
     1
  0
VPORT
  2
*ACTIVE
 70
     0
 10
0.0
 20
0.0
 11
1.0
 21
1.0
 12
2646.070538727757139
 22
152.3783703376813889
 13
0.0
 23
0.0
 14
1.0
 24
1.0
 15
0.0
 25
0.0
 16
0.0
 26
0.0
 36
60.4960186965801583
 17
3911.3653564453120453
 27
132.5796051025390057
 37
0.0
 40
5.1842837826963537
 41
1.682022471910112
 42
50.0
 43
0.0
 44
0.0
 50
0.0
 51
0.0
 71
     0
 72
   100
 73
     1
 74
     1
 75
     0
 76
     0
 77
     0
 78
     0
  0
ENDTAB
  0
TABLE
  2
LTYPE
 70
     2
  0
LTYPE
  2
CONTINUOUS
 70
     0
  3
Solid line
 72
    65
 73
     0
 40
0.0
  0
LTYPE
  2
PHANTOM2
 70
     0
  3
___ _ _ ___ _ _ ___ _ _ ___ _ _
 72
    65
 73
     6
 40
1.25
 49
0.625
 49
-0.125
 49
0.125
 49
-0.125
 49
0.125
 49
-0.125
  0
ENDTAB
  0
TABLE
  2
LAYER
 70
     2
  0
LAYER
  2
0
 70
     0
 62
   255
  6
CONTINUOUS
  0
LAYER
  2
DEFPOINTS
 70
     0
 62
     7
  6
CONTINUOUS
  0
ENDTAB
  0
TABLE
  2
STYLE
 70
     1
  0
STYLE
  2
STANDARD
 70
     0
 40
0.0
 41
0.8
 50
0.0
 71
     0
 42
0.2
  3
txt
  4

  0
ENDTAB
  0
TABLE
  2
VIEW
 70
     0
  0
ENDTAB
  0
TABLE
  2
UCS
 70
     0
  0
ENDTAB
  0
TABLE
  2
APPID
 70
    11
  0
APPID
  2
ACAD
 70
     0
  0
APPID
  2
ACAD_MLEADERVER
 70
     0
  0
APPID
  2
ACAD_EXEMPT_FROM_CAD_STANDARDS
 70
     0
  0
APPID
  2
ACAD_NAV_VCDISPLAY
 70
     0
  0
APPID
  2
ACAECLAYERSTANDARD
 70
     0
  0
APPID
  2
ACCMTRANSPARENCY
 70
     0
  0
APPID
  2
ACAD_DSTYLE_DIMJAG
 70
     0
  0
APPID
  2
ACAD_DSTYLE_DIMTALN
 70
     0
  0
APPID
  2
ACDBATTR
 70
     0
  0
APPID
  2
ACADANNOTATIVE
 70
     0
  0
APPID
  2
DCO15
 70
     0
  0
ENDTAB
  0
TABLE
  2
DIMSTYLE
 70
     1
  0
DIMSTYLE
  2
STANDARD
 70
     0
  3

  4

  5

  6

  7

 40
1.0
 41
0.1875
 42
0.0625
 43
0.38
 44
0.125
 45
0.0
 46
0.0
 47
0.01
 48
0.01
140
0.15625
141
0.09
142
0.0
143
25.3999999999999986
144
1.0
145
0.0
146
1.0
147
0.09
 71
     1
 72
     0
 73
     1
 74
     1
 75
     0
 76
     0
 77
     0
 78
     4
170
     0
171
     2
172
     0
173
     0
174
     0
175
     0
176
     0
177
     0
178
     0
  0
ENDTAB
  0
ENDSEC
  0
SECTION
  2
BLOCKS
  0
BLOCK
  8
0
  2
$MODEL_SPACE
 70
     0
 10
0.0
 20
0.0
 30
0.0
  3
$MODEL_SPACE
  1

  0
ENDBLK
  5
21
  8
0
  0
BLOCK
 67
     1
  8
0
  2
$PAPER_SPACE
 70
     0
 10
0.0
 20
0.0
 30
0.0
  3
$PAPER_SPACE
  1

  0
ENDBLK
  5
1D
 67
     1
  8
0
  0
ENDSEC
  0
SECTION
  2
ENTITIES
  0
ATTDEF
  5
26A5B
  8
DEFPOINTS
 10
6559.6359234558885873
 20
285.5326833687317958
 30
0.0
 40
0.001
  1
P34592-BV
  3

  2
MODELNUMBER
 70
     0
1001
ACDBATTR
1070
     0
1070
     1
  0
ATTDEF
  5
26A5C
  8
DEFPOINTS
 10
6559.6357976462313673
 20
285.5310165283526089
 30
0.0
 40
0.001
  1
VICE
  3

  2
TRADENAME
 70
     0
1001
ACDBATTR
1070
     0
1070
     1
  0
ATTDEF
  5
26A5D
  8
DEFPOINTS
 10
6559.6359234558885873
 20
285.5293500353984086
 30
0.0
 40
0.001
  1
VALVE TRIM
  3

  2
PRODUCT
 70
     0
1001
ACDBATTR
1070
     0
1070
     1
  0
LINE
  5
2E7D0
  8
0
 10
6555.835200150617311
 20
285.5327785898205093
 30
0.0
 11
6557.2900033002169948
 21
285.5327785898205093
 31
0.0
  0
LINE
  5
2E7D1
  8
0
 10
6559.634806468718125
 20
287.5327785898205093
 30
0.0
 11
6559.634806468718125
 21
283.5327785898205093
 31
0.0
  0
LINE
  5
2E7D2
  8
0
 10
6559.0838064687168298
 20
287.5327785898205093
 30
0.0
 11
6559.634806468718125
 21
287.5327785898205093
 31
0.0
  0
LINE
  5
2E7D3
  8
0
 10
6559.0248064687166334
 20
287.4737785898204834
 30
0.0
 11
6559.0248064687166334
 21
283.5917785898204784
 31
0.0
  0
LINE
  5
2E7D4
  8
0
 10
6559.2463822802837967
 20
287.5181339288884033
 30
0.0
 11
6559.0394511296672135
 21
287.3112027783697044
 31
0.0
  0
ARC
  5
2E7D5
  8
0
 10
6559.281737619336127
 20
287.4827785898204979
 30
0.0
 40
0.05
 50
90.0
 51
134.9999999861545064
  0
ARC
  5
2E7D6
  8
0
 10
6559.0838064687168298
 20
287.4737785898204834
 30
0.0
 40
0.059
 50
90.0
 51
180.0
  0
ARC
  5
2E7D7
  8
0
 10
6559.0748064687177248
 20
287.2758474393019128
 30
0.0
 40
0.05
 50
134.999999986149902
 51
180.0000000000032117
  0
LINE
  5
2E7D8
  8
0
 10
6557.9805545002172948
 20
286.5757707158205108
 30
0.0
 11
6557.9805545002172948
 21
284.4897864638205078
 31
0.0
  0
LINE
  5
2E7D9
  8
0
 10
6557.9505544813173401
 20
286.5857707158205017
 30
0.0
 11
6557.9505544813173401
 21
284.4797864638205169
 31
0.0
  0
ARC
  5
2E7DA
  8
0
 10
6557.4474283441322768
 20
286.556370715820492
 30
0.0
 40
0.0394
 50
90.0
 51
163.3007557629659914
  0
LINE
  5
2E7DB
  8
0
 10
6557.4474283441322768
 20
286.5957707158204926
 30
0.0
 11
6557.9405544813171218
 21
286.5957707158204926
 31
0.0
  0
LINE
  5
2E7DC
  8
0
 10
6558.0005545002168219
 20
286.5957707158204926
 30
0.0
 11
6559.0248064687166334
 21
286.5957707158204926
 31
0.0
  0
LINE
  5
2E7DD
  8
0
 10
6557.3000033002172131
 20
286.1816690600742277
 30
0.0
 11
6557.3000033002172131
 21
284.8838881195667909
 31
0.0
  0
ARC
  5
2E7DE
  8
0
 10
6557.2900033002169948
 20
285.5227785898205184
 30
0.0
 40
0.01
 50
0.0
 51
90.0
  0
ARC
  5
2E7DF
  8
0
 10
6557.2900033002169948
 20
285.1954478811205149
 30
0.0
 40
0.01
 50
270.0
 51
0.0
  0
LINE
  5
2E7E0
  8
0
 10
6557.9505544813173401
 20
286.2026893087509052
 30
0.0
 11
6557.9629809068428585
 21
286.2151157341342014
 31
0.0
  0
ARC
  5
2E7E1
  8
0
 10
6557.9205545002168947
 20
286.257542141249985
 30
0.0
 40
0.06
 50
314.9999996696392941
 51
0.0
  0
ARC
  5
2E7E2
  8
0
 10
6558.0005545002168219
 20
286.5757707158205108
 30
0.0
 40
0.02
 50
90.0
 51
180.0000000000065086
  0
ARC
  5
2E7E3
  8
0
 10
6557.9405544813171218
 20
286.5857707158205017
 30
0.0
 40
0.01
 50
0.0
 51
90.0
  0
LINE
  5
2E7E4
  8
0
 10
6557.3058654465739892
 20
286.2216104161749968
 30
0.0
 11
6557.4096899884953018
 21
286.5676922225138128
 31
0.0
  0
ARC
  5
2E7E5
  8
0
 10
6557.4390033002173368
 20
286.1816690600742277
 30
0.0
 40
0.139
 50
163.3007557629597954
 51
180.0000000000065086
  0
LINE
  5
2E7E6
  8
0
 10
6557.4096899884953018
 20
286.5676922225138128
 30
0.0
 11
6557.4096899884953018
 21
284.4978649571272058
 31
0.0
  0
LINE
  5
2E7E7
  8
0
 10
6559.0838064687168298
 20
283.5327785898205093
 30
0.0
 11
6559.634806468718125
 21
283.5327785898205093
 31
0.0
  0
LINE
  5
2E7E8
  8
0
 10
6559.2463822802837967
 20
283.5474232507526722
 30
0.0
 11
6559.0394511296672135
 21
283.7543544012713141
 31
0.0
  0
ARC
  5
2E7E9
  8
0
 10
6559.281737619336127
 20
283.5827785898205207
 30
0.0
 40
0.05
 50
225.0000000138454936
 51
270.0
  0
ARC
  5
2E7EA
  8
0
 10
6559.0838064687168298
 20
283.5917785898204784
 30
0.0
 40
0.059
 50
180.0
 51
270.0
  0
ARC
  5
2E7EB
  8
0
 10
6559.0748064687177248
 20
283.7897097403391058
 30
0.0
 40
0.05
 50
179.9999999999967031
 51
225.0000000138500127
  0
LINE
  5
2E7EC
  8
0
 10
6559.0248064687166334
 20
284.4697864638205829
 30
0.0
 11
6558.0005545002168219
 21
284.4697864638205829
 31
0.0
  0
LINE
  5
2E7ED
  8
0
 10
6557.9405544813171218
 20
284.4697864638205829
 30
0.0
 11
6557.4474283441322768
 21
284.4697864638205829
 31
0.0
  0
ARC
  5
2E7EE
  8
0
 10
6557.4474283441322768
 20
284.5091864638205834
 30
0.0
 40
0.0394
 50
196.6992442370338949
 51
270.0
  0
LINE
  5
2E7EF
  8
0
 10
6557.9505544813173401
 20
284.8635349098325946
 30
0.0
 11
6557.9629809068428585
 21
284.8511084844492984
 31
0.0
  0
ARC
  5
2E7F0
  8
0
 10
6557.9205545002168947
 20
284.8086820773335148
 30
0.0
 40
0.06
 50
0.0
 51
45.0000003303606917
  0
ARC
  5
2E7F1
  8
0
 10
6558.0005545002168219
 20
284.4897864638205078
 30
0.0
 40
0.02
 50
179.9999999999934914
 51
270.0
  0
ARC
  5
2E7F2
  8
0
 10
6557.9405544813171218
 20
284.4797864638205169
 30
0.0
 40
0.01
 50
270.0
 51
0.0
  0
LINE
  5
2E7F3
  8
0
 10
6557.3058654465739892
 20
284.8439467634660218
 30
0.0
 11
6557.4096899884953018
 21
284.4978649571272058
 31
0.0
  0
ARC
  5
2E7F4
  8
0
 10
6557.4390033002173368
 20
284.8838881195667909
 30
0.0
 40
0.139
 50
179.9999999999934914
 51
196.6992442370400909
  0
LINE
  5
2E7F5
  8
0
 10
6557.2900033002169948
 20
286.0327785898205093
 30
0.0
 11
6556.304146011640114
 21
286.0327785898205093
 31
0.0
  0
ARC
  5
2E7F6
  8
0
 10
6557.2900033002169948
 20
286.0227785898205184
 30
0.0
 40
0.01
 50
0.0000000000065138
 51
90.0
  0
LINE
  5
2E7F7
  8
0
 10
6555.7253103868179096
 20
286.0246683536204841
 30
0.0
 11
6555.8832873104383907
 21
286.0246683536204841
 31
0.0
  0
LINE
  5
2E7F8
  8
0
 10
6556.1131178641198858
 20
286.0246683536204841
 30
0.0
 11
6556.2552639424511653
 21
286.0246683536204841
 31
0.0
  0
LINE
  5
2E7F9
  8
0
 10
6555.2927258226172853
 20
285.5327389016201209
 30
0.0
 11
6555.2927258226172853
 21
285.1402372835784149
 31
0.0
  0
LINE
  5
2E7FA
  8
0
 10
6555.2333103868168109
 20
285.5326683536205223
 30
0.0
 11
6555.2333103868168109
 21
285.374193539737405
 31
0.0
  0
LINE
  5
2E7FB
  8
0
 10
6555.2333103868168109
 20
285.1444262346872733
 30
0.0
 11
6555.2333103868168109
 21
285.0052639849311049
 31
0.0
  0
ARC
  5
2E7FC
  8
0
 10
6555.7253103868179096
 20
285.5326683536205223
 30
0.0
 40
0.492
 50
90.0
 51
180.0
  0
ARC
  5
2E7FD
  8
0
 10
6556.1129966876324033
 20
286.3035324836499171
 30
0.0
 40
0.3384764562654566
 50
271.8835155723488128
 51
286.2931051558880995
  0
ARC
  5
2E7FE
  8
0
 10
6556.1210158548556137
 20
286.2742548754437735
 30
0.0
 40
0.3081253106238184
 50
286.3891962142924967
 51
297.7934810008471231
  0
ARC
  5
2E7FF
  8
0
 10
6556.2324500750710286
 20
286.0628427687972248
 30
0.0
 40
0.0691427500229878
 50
297.7934810008471231
 51
316.1079224705164847
  0
ARC
  5
2E800
  8
0
 10
6550.0935470862532384
 20
289.5952973675251769
 30
0.0
 40
7.1497963572629581
 50
329.9491561735289906
 51
330.0219535512562743
  0
ARC
  5
2E801
  8
0
 10
6556.304146011640114
 20
286.0127785898205275
 30
0.0
 40
0.02
 50
90.0
 51
150.021953551259088
  0
ARC
  5
2E802
  8
0
 10
6556.2508653319719087
 20
286.0042808350107748
 30
0.0
 40
0.0208566221905768
 50
4.4318520398324761
 51
77.8250439767009112
  0
LINE
  5
2E803
  8
0
 10
6556.2726751711416
 20
285.185447881120524
 30
0.0
 11
6557.2900033002169948
 21
285.185447881120524
 31
0.0
  0
LINE
  5
2E804
  8
0
 10
6556.1998431726788112
 20
285.1552798795826789
 30
0.0
 11
6556.1026988607545718
 21
285.0581355676583257
 31
0.0
  0
ARC
  5
2E805
  8
0
 10
6556.2726751711416
 20
285.0824478811205154
 30
0.0
 40
0.103
 50
90.0
 51
135.0000000000046043
  0
LINE
  5
2E806
  8
0
 10
6556.0725308592172951
 20
284.9853035691961054
 30
0.0
 11
6556.0725308592172951
 21
283.8266372610167991
 31
0.0
  0
ARC
  5
2E807
  8
0
 10
6556.1755308592173606
 20
284.9853035691961054
 30
0.0
 40
0.103
 50
135.0000000000069065
 51
179.9999999999967031
  0
LINE
  5
2E808
  8
0
 10
6557.2898783415921571
 20
285.2769637722182097
 30
0.0
 11
6556.2219565324621726
 21
285.2903094182652239
 31
0.0
  0
LINE
  5
2E809
  8
0
 10
6556.1607903077510855
 20
285.2654201311547126
 30
0.0
 11
6555.9925586092831509
 21
285.0971884326863801
 31
0.0
  0
LINE
  5
2E80A
  8
0
 10
6555.9676693221726964
 20
285.0360222079755204
 30
0.0
 11
6555.9695048500170742
 21
283.9281994454204892
 31
0.0
  0
ARC
  5
2E80B
  8
0
 10
6557.2900033002169948
 20
285.2869629914549137
 30
0.0
 40
0.01
 50
269.2840211846952911
 51
0.0000000000097707
  0
ARC
  5
2E80C
  8
0
 10
6556.2208943841533255
 20
285.2053160547538937
 30
0.0
 40
0.085
 50
89.2840211846952911
 51
135.0000000000069065
  0
ARC
  5
2E80D
  8
0
 10
6556.0526626856835719
 20
285.0370843562855043
 30
0.0
 40
0.085
 50
135.0000000000046043
 51
180.7159788147185111
  0
LINE
  5
2E80E
  8
0
 10
6555.7252001506167289
 20
285.4227785898204957
 30
0.0
 11
6555.7252001506167289
 21
284.1964957182951821
 31
0.0
  0
ARC
  5
2E80F
  8
0
 10
6555.835200150617311
 20
285.4227785898204957
 30
0.0
 40
0.11
 50
90.0
 51
180.0
  0
ARC
  5
2E810
  8
0
 10
6557.2900033002169948
 20
285.5427785898205002
 30
0.0
 40
0.01
 50
270.0
 51
359.9999999999869829
  0
LINE
  5
2E811
  8
0
 10
6557.2900033002169948
 20
285.6346808310204892
 30
0.0
 11
6555.7152979094171315
 21
285.6346808310204892
 31
0.0
  0
ARC
  5
2E812
  8
0
 10
6557.2900033002169948
 20
285.6446808310205938
 30
0.0
 40
0.01
 50
270.0
 51
0.0
  0
LINE
  5
2E813
  8
0
 10
6555.6232979094165785
 20
285.5426808310205047
 30
0.0
 11
6555.6232979094165785
 21
284.3360913936712109
 31
0.0
  0
ARC
  5
2E814
  8
0
 10
6555.7152979094171315
 20
285.5426808310205047
 30
0.0
 40
0.092
 50
90.0
 51
180.0
  0
LINE
  5
2E815
  8
0
 10
6555.2252002235800319
 20
284.9538157393840834
 30
0.0
 11
6555.2252002235800319
 21
282.5174367827892752
 31
0.0
  0
ARC
  5
2E816
  8
0
 10
6555.1556219839549158
 20
285.0535049146423034
 30
0.0
 40
0.1173139085115077
 50
318.7698799552288165
 51
337.3395189679173996
  0
ARC
  5
2E817
  8
0
 10
6554.9638016608287217
 20
285.1432344424893017
 30
0.0
 40
0.3290169432445554
 50
335.7894241158991804
 51
344.3213696778078088
  0
ARC
  5
2E818
  8
0
 10
6554.9603836609439895
 20
285.1433282656744268
 30
0.0
 40
0.3323341680138208
 50
344.4650432675343268
 51
352.9376295783673072
  0
ARC
  5
2E819
  8
0
 10
6554.8962142897917147
 20
285.1478225544638008
 30
0.0
 40
0.396584079355398
 50
353.4330945939851745
 51
358.9040646530032745
  0
ARC
  5
2E81A
  8
0
 10
6554.5114705724672604
 20
286.2209952155232031
 30
0.0
 40
1.4442755975811561
 50
300.0719497896803887
 51
300.4702725251693209
  0
ARC
  5
2E81B
  8
0
 10
6555.2452002235813779
 20
284.9538157393840834
 30
0.0
 40
0.02
 50
120.0719497896819945
 51
180.0000000000065086
  0
ARC
  5
2E81C
  8
0
 10
6555.2533444681312176
 20
285.0063717585967993
 30
0.0
 40
0.0200646848121733
 50
183.1649161408107886
 51
265.6530053910059905
  0
LINE
  5
2E81D
  8
0
 10
6555.6794162501419123
 20
284.2006097343959254
 30
0.0
 11
6556.2111410839152086
 21
283.6688849006235955
 31
0.0
  0
ARC
  5
2E81E
  8
0
 10
6555.8258001506183064
 20
284.1964957182951821
 30
0.0
 40
0.1006
 50
180.0
 51
224.9999999999953957
  0
ARC
  5
2E81F
  8
0
 10
6555.8148979094166862
 20
284.3360913936712109
 30
0.0
 40
0.1916
 50
180.0
 51
224.9999999999953957
  0
LINE
  5
2E820
  8
0
 10
6556.0639953097697799
 20
283.8231017426527956
 30
0.0
 11
6555.7553677913429055
 21
284.1317319744860015
 31
0.0
  0
ARC
  5
2E821
  8
0
 10
6556.0675308592162764
 20
283.8266372610167991
 30
0.0
 40
0.005
 50
224.9997481331288043
 51
0.0
  0
ARC
  5
2E822
  8
0
 10
6555.8282001506167944
 20
284.2045636121346774
 30
0.0
 40
0.103
 50
180.0
 51
224.9997161544524999
  0
LINE
  5
2E823
  8
0
 10
6556.2251999584159421
 20
283.6349437751266009
 30
0.0
 11
6556.2251999584159421
 21
282.5174291589531208
 31
0.0
  0
ARC
  5
2E824
  8
0
 10
6556.1771999584161676
 20
283.6349437751266009
 30
0.0
 40
0.048
 50
0.0000000000032569
 51
44.9999999999953886
  0
LINE
  5
2E825
  8
0
 10
6555.3594647157487998
 20
282.3831722906205073
 30
0.0
 11
6556.0909430900846928
 21
282.3831722906205073
 31
0.0
  0
LINE
  5
2E826
  8
0
 10
6555.331887551282307
 20
282.3945951261541722
 30
0.0
 11
6555.2366230591151179
 21
282.4898596183230097
 31
0.0
  0
LINE
  5
2E827
  8
0
 10
6556.1185202545511856
 20
282.3945951261541722
 30
0.0
 11
6556.213777122882675
 21
282.4898519944867985
 31
0.0
  0
ARC
  5
2E828
  8
0
 10
6555.3594647157487998
 20
282.4221722906204946
 30
0.0
 40
0.039
 50
224.9999999999930935
 51
270.0
  0
ARC
  5
2E829
  8
0
 10
6556.0909430900846928
 20
282.4221722906204946
 30
0.0
 40
0.039
 50
270.0
 51
315.0000000000046043
  0
ARC
  5
2E82A
  8
0
 10
6556.1861999584170917
 20
282.5174291589531208
 30
0.0
 40
0.039
 50
315.0000000000022737
 51
0.0000000000032569
  0
ARC
  5
2E82B
  8
0
 10
6555.2642002235807013
 20
282.5174367827892752
 30
0.0
 40
0.039
 50
179.9999999999934914
 51
225.0000000000023022
  0
LINE
  5
2E82C
  8
0
 10
6555.2366230591151179
 20
282.4898596183230097
 30
0.0
 11
6556.2137847446119849
 21
282.4898596183230097
 31
0.0
  0
LINE
  5
2E82D
  8
0
 10
6556.124121605768778
 20
285.9652389016201255
 30
0.0
 11
6555.7252258226171762
 21
285.9652389016201255
 31
0.0
  0
ARC
  5
2E82E
  8
0
 10
6555.7252258226171762
 20
285.5327389016201778
 30
0.0
 40
0.4325000000000001
 50
90.0
 51
180.0
  0
LINE
  5
2E830
  8
0
 10
6559.2463822802837967
 20
287.5181339288884033
 30
0.0
 11
6559.2463822802837967
 21
283.5474232507526153
 31
0.0
  0
ARC
  5
2E831
  8
0
 10
6555.998202587279593
 20
286.4968087902726097
 30
0.0
 40
0.4859239783891643
 50
256.3206379157966808
 51
283.6793620842033192
  0
ARC
  5
2E832
  8
0
 10
6554.7624187135643297
 20
285.259309887212396
 30
0.0
 40
0.4847032303972842
 50
346.2893612101719896
 51
13.7106387898279998
  0
ARC
  5
2E833
  8
0
 10
6555.9639483962437225
 20
283.9304727115543869
 30
0.0
 40
0.0060034921048132
 50
255.3969098621413991
 51
337.7494622618211793
  0
LINE
  5
2E834
  8
0
 10
6555.9851996939178207
 20
283.9018980512643111
 30
0.0
 11
6555.9851996939178207
 21
283.8948262906204718
 31
0.0
  0
LINE
  5
2E835
  8
0
 10
6555.9367367149925485
 20
283.9503614562685243
 30
0.0
 11
6555.9388081105171295
 21
283.9412178740205945
 31
0.0
  0
ENDSEC
  0
EOF
