  0
SECTION
  2
HEADER
  9
$ACADVER
  1
AC1009
  9
$INSBASE
 10
6771.0263330257739653
 20
320.618674452473897
 30
0.0
  9
$EXTMIN
 10
6760.416588752046664
 20
319.4917606045067942
 30
-0.0000000349181948
  9
$EXTMAX
 10
6781.6292206789221382
 20
321.7502423889361012
 30
0.0000000814935746
  9
$LIMMIN
 10
0.0
 20
0.0
  9
$LIMMAX
 10
11.6929133858000007
 20
8.2677165353999982
  9
$ORTHOMODE
 70
     0
  9
$REGENMODE
 70
     1
  9
$FILLMODE
 70
     1
  9
$QTEXTMODE
 70
     0
  9
$MIRRTEXT
 70
     0
  9
$DRAGMODE
 70
     2
  9
$LTSCALE
 40
0.6431102362
  9
$OSMODE
 70
  4095
  9
$ATTMODE
 70
     1
  9
$TEXTSIZE
 40
0.2
  9
$TRACEWID
 40
0.05
  9
$TEXTSTYLE
  7
STANDARD
  9
$CLAYER
  8
0
  9
$CELTYPE
  6
BYLAYER
  9
$CECOLOR
 62
   256
  9
$DIMSCALE
 40
1.0
  9
$DIMASZ
 40
0.1875
  9
$DIMEXO
 40
0.0625
  9
$DIMDLI
 40
0.4443307087
  9
$DIMRND
 40
0.0
  9
$DIMDLE
 40
0.0
  9
$DIMEXE
 40
0.125
  9
$DIMTP
 40
0.01
  9
$DIMTM
 40
0.01
  9
$DIMTXT
 40
2.0
  9
$DIMCEN
 40
0.1052362205
  9
$DIMTSZ
 40
0.0
  9
$DIMTOL
 70
     1
  9
$DIMLIM
 70
     0
  9
$DIMTIH
 70
     1
  9
$DIMTOH
 70
     1
  9
$DIMSE1
 70
     0
  9
$DIMSE2
 70
     0
  9
$DIMTAD
 70
     0
  9
$DIMZIN
 70
     0
  9
$DIMBLK
  1

  9
$DIMASO
 70
     1
  9
$DIMSHO
 70
     1
  9
$DIMPOST
  1
\X
  9
$DIMAPOST
  1

  9
$DIMALT
 70
     1
  9
$DIMALTD
 70
     2
  9
$DIMALTF
 40
25.3999999999999986
  9
$DIMLFAC
 40
1.0
  9
$DIMTOFL
 70
     0
  9
$DIMTVP
 40
0.0
  9
$DIMTIX
 70
     0
  9
$DIMSOXD
 70
     0
  9
$DIMSAH
 70
     0
  9
$DIMBLK1
  1

  9
$DIMBLK2
  1

  9
$DIMSTYLE
  2
STANDARD
  9
$DIMCLRD
 70
     0
  9
$DIMCLRE
 70
     0
  9
$DIMCLRT
 70
     0
  9
$DIMTFAC
 40
1.0
  9
$DIMGAP
 40
0.09
  9
$LUNITS
 70
     2
  9
$LUPREC
 70
     4
  9
$SKETCHINC
 40
0.1
  9
$FILLETRAD
 40
0.0
  9
$AUNITS
 70
     0
  9
$AUPREC
 70
     0
  9
$MENU
  1
.
  9
$ELEVATION
 40
0.0
  9
$PELEVATION
 40
0.0
  9
$THICKNESS
 40
0.0
  9
$LIMCHECK
 70
     0
  9
$BLIPMODE
 70
     0
  9
$CHAMFERA
 40
0.0
  9
$CHAMFERB
 40
0.0
  9
$SKPOLY
 70
     0
  9
$TDCREATE
 40
2458060.468368056230247
  9
$TDUPDATE
 40
2460332.4796064808033407
  9
$TDINDWG
 40
0.9838033564999999
  9
$TDUSRTIMER
 40
0.9838033564999999
  9
$USRTIMER
 70
     1
  9
$ANGBASE
 50
0.0
  9
$ANGDIR
 70
     0
  9
$PDMODE
 70
     0
  9
$PDSIZE
 40
0.3125
  9
$PLINEWID
 40
0.0
  9
$COORDS
 70
     1
  9
$SPLFRAME
 70
     0
  9
$SPLINETYPE
 70
     6
  9
$SPLINESEGS
 70
     8
  9
$ATTDIA
 70
     1
  9
$ATTREQ
 70
     1
  9
$HANDLING
 70
     1
  9
$HANDSEED
  5
3D4D9
  9
$SURFTAB1
 70
     6
  9
$SURFTAB2
 70
     6
  9
$SURFTYPE
 70
     6
  9
$SURFU
 70
     6
  9
$SURFV
 70
     6
  9
$UCSNAME
  2

  9
$UCSORG
 10
0.0
 20
0.0
 30
0.0
  9
$UCSXDIR
 10
1.0
 20
0.0
 30
0.0
  9
$UCSYDIR
 10
0.0
 20
1.0
 30
0.0
  9
$PUCSNAME
  2

  9
$PUCSORG
 10
0.0
 20
0.0
 30
0.0
  9
$PUCSXDIR
 10
1.0
 20
0.0
 30
0.0
  9
$PUCSYDIR
 10
0.0
 20
1.0
 30
0.0
  9
$USERI1
 70
     0
  9
$USERI2
 70
     0
  9
$USERI3
 70
     0
  9
$USERI4
 70
     0
  9
$USERI5
 70
     0
  9
$USERR1
 40
0.0
  9
$USERR2
 40
0.0
  9
$USERR3
 40
0.0
  9
$USERR4
 40
0.0
  9
$USERR5
 40
0.0
  9
$WORLDVIEW
 70
     1
  9
$SHADEDGE
 70
     3
  9
$SHADEDIF
 70
    70
  9
$TILEMODE
 70
     1
  9
$MAXACTVP
 70
    64
  9
$PLIMCHECK
 70
     0
  9
$PEXTMIN
 10
1.0000000000000000E+20
 20
1.0000000000000000E+20
 30
1.0000000000000000E+20
  9
$PEXTMAX
 10
-1.0000000000000000E+20
 20
-1.0000000000000000E+20
 30
-1.0000000000000000E+20
  9
$PLIMMIN
 10
0.0
 20
0.0
  9
$PLIMMAX
 10
12.0
 20
9.0
  9
$UNITMODE
 70
     0
  9
$VISRETAIN
 70
     1
  9
$PLINEGEN
 70
     0
  9
$PSLTSCALE
 70
     1
  0
ENDSEC
  0
SECTION
  2
TABLES
  0
TABLE
  2
VPORT
 70
     1
  0
VPORT
  2
*ACTIVE
 70
     0
 10
0.0
 20
0.0
 11
1.0
 21
1.0
 12
2859.6575482701719011
 22
188.0413963941824136
 13
0.0
 23
0.0
 14
1.0
 24
1.0
 15
0.0
 25
0.0
 16
0.0
 26
0.0
 36
60.4960186965801583
 17
3911.3653564453120453
 27
132.5796051025390057
 37
0.0
 40
10.0378148442617103
 41
2.1211111111111101
 42
50.0
 43
0.0
 44
0.0
 50
0.0
 51
0.0
 71
     0
 72
   100
 73
     1
 74
     1
 75
     0
 76
     0
 77
     0
 78
     0
  0
ENDTAB
  0
TABLE
  2
LTYPE
 70
     3
  0
LTYPE
  2
CONTINUOUS
 70
     0
  3
Solid line
 72
    65
 73
     0
 40
0.0
  0
LTYPE
  2
PHANTOM2
 70
     0
  3
___ _ _ ___ _ _ ___ _ _ ___ _ _
 72
    65
 73
     6
 40
1.25
 49
0.625
 49
-0.125
 49
0.125
 49
-0.125
 49
0.125
 49
-0.125
  0
ENDTAB
  0
TABLE
  2
LAYER
 70
     2
  0
LAYER
  2
0
 70
     0
 62
   255
  6
CONTINUOUS
  0
LAYER
  2
DEFPOINTS
 70
     0
 62
     7
  6
CONTINUOUS
  0
ENDTAB
  0
TABLE
  2
STYLE
 70
     1
  0
STYLE
  2
STANDARD
 70
     0
 40
0.0
 41
0.8
 50
0.0
 71
     0
 42
0.2
  3
txt
  4

  0
ENDTAB
  0
TABLE
  2
VIEW
 70
     0
  0
ENDTAB
  0
TABLE
  2
UCS
 70
     0
  0
ENDTAB
  0
TABLE
  2
APPID
 70
    11
  0
APPID
  2
ACAD
 70
     0
  0
APPID
  2
ACAD_MLEADERVER
 70
     0
  0
APPID
  2
ACAD_EXEMPT_FROM_CAD_STANDARDS
 70
     0
  0
APPID
  2
ACAD_NAV_VCDISPLAY
 70
     0
  0
APPID
  2
ACAECLAYERSTANDARD
 70
     0
  0
APPID
  2
ACCMTRANSPARENCY
 70
     0
  0
APPID
  2
ACAD_DSTYLE_DIMJAG
 70
     0
  0
APPID
  2
ACAD_DSTYLE_DIMTALN
 70
     0
  0
APPID
  2
ACDBATTR
 70
     0
  0
APPID
  2
ACADANNOTATIVE
 70
     0
  0
APPID
  2
DCO15
 70
     0
  0
ENDTAB
  0
TABLE
  2
DIMSTYLE
 70
     2
  0
DIMSTYLE
  2
STANDARD
 70
     0
  3

  4

  5

  6

  7

 40
1.0
 41
0.1875
 42
0.0625
 43
0.38
 44
0.125
 45
0.0
 46
0.0
 47
0.01
 48
0.01
140
0.15625
141
0.09
142
0.0
143
25.3999999999999986
144
1.0
145
0.0
146
1.0
147
0.09
 71
     1
 72
     0
 73
     1
 74
     1
 75
     0
 76
     0
 77
     0
 78
     4
170
     0
171
     2
172
     0
173
     0
174
     0
175
     0
176
     0
177
     0
178
     0
  0
ENDTAB
  0
ENDSEC
  0
SECTION
  2
BLOCKS
  0
BLOCK
  8
0
  2
$MODEL_SPACE
 70
     0
 10
0.0
 20
0.0
 30
0.0
  3
$MODEL_SPACE
  1

  0
ENDBLK
  5
21
  8
0
  0
BLOCK
 67
     1
  8
0
  2
$PAPER_SPACE
 70
     0
 10
0.0
 20
0.0
 30
0.0
  3
$PAPER_SPACE
  1

  0
ENDBLK
  5
1D
 67
     1
  8
0
  0
BLOCK
  8
0
  2
_FILLED
 70
     0
 10
0.0
 20
0.0
 30
0.0
  3
_FILLED
  1

  0
SOLID
  5
3D325
  8
0
  6
BYBLOCK
 62
     0
 10
0.0
 20
0.0
 30
0.0
 11
-1.0
 21
0.1666666667
 31
0.0
 12
-1.0
 22
-0.1666666667
 32
0.0
 13
-1.0
 23
-0.1666666667
 33
0.0
  0
ENDBLK
  5
3D326
  8
0
  6
BYBLOCK
 62
     0
  0
ENDSEC
  0
SECTION
  2
ENTITIES
  0
ATTDEF
  5
3A071
  8
DEFPOINTS
 10
6771.0222892692700043
 20
320.6225872909893724
 30
0.0
 40
0.001
  1
P34594-BAF
  3

  2
MODELNUMBER
 70
     0
1001
ACDBATTR
1070
     0
1070
     1
  0
ATTDEF
  5
3A072
  8
DEFPOINTS
 10
6771.0221634596118747
 20
320.6209204506102992
 30
0.0
 40
0.001
  1
VICE
  3

  2
TRADENAME
 70
     0
1001
ACDBATTR
1070
     0
1070
     1
  0
ATTDEF
  5
3A073
  8
DEFPOINTS
 10
6771.0222892692700043
 20
320.6192539576560989
 30
0.0
 40
0.001
  1
TOWEL BAR
  3

  2
PRODUCT
 70
     0
1001
ACDBATTR
1070
     0
1070
     1
  0
LINE
  5
3D37A
  8
0
 10
6780.4682571247330998
 20
320.446445231209907
 30
0.0
 11
6780.4965258452575654
 21
320.4635811039877922
 31
0.0
  0
LINE
  5
3D37B
  8
0
 10
6780.4610273150728972
 20
320.4442926903706166
 30
0.0
 11
6779.5326205506507904
 21
320.4442768835605193
 31
0.0
  0
ARC
  5
3D37C
  8
0
 10
6780.4613198405086223
 20
320.4564474153514197
 30
0.0
 40
0.0121582445480572
 50
268.6213395929569856
 51
304.8901215109656846
  0
ARC
  5
3D37D
  8
0
 10
6780.4604486888856627
 20
320.4302349445997038
 30
0.0
 40
0.0098651507316688
 50
27.8329478881698087
 51
79.9527140538104248
  0
LINE
  5
3D37E
  8
0
 10
6780.4691725663124089
 20
320.4348409365251769
 30
0.0
 11
6780.4791607948227465
 21
320.4158689377239284
 31
0.0
  0
ARC
  5
3D37F
  8
0
 10
6780.4704513372189467
 20
320.4112833903442947
 30
0.0
 40
0.0098428601819922
 50
337.6007230926607008
 51
27.7668974391977201
  0
ARC
  5
3D380
  8
0
 10
6779.5287991774621332
 20
320.4990832695876861
 30
0.0
 40
0.0549394470522103
 50
180.9308284527139961
 51
273.9884909684059835
  0
ARC
  5
3D381
  8
0
 10
6782.05813619429955
 20
320.6186682975763915
 30
0.0
 40
2.587075995502099
 50
179.9998606460644908
 51
182.6691723790401056
  0
LINE
  5
3D382
  8
0
 10
6780.4965258452575654
 20
320.4635811039877922
 30
0.0
 11
6779.5323390739240494
 21
320.463577402823887
 31
0.0
  0
ARC
  5
3D383
  8
0
 10
6782.4203951515273729
 20
320.6186738163240193
 30
0.0
 40
2.9171741698020042
 50
179.9999694954497045
 51
182.5471385914975997
  0
ARC
  5
3D384
  8
0
 10
6779.5327168003841507
 20
320.4902146866029966
 30
0.0
 40
0.0266399617943892
 50
182.5471515150757966
 51
269.1875792701197838
  0
ARC
  5
3D385
  8
0
 10
6780.4860768633716361
 20
320.4806983129154219
 30
0.0
 40
0.0200544275394248
 50
301.4014459301150737
 51
313.4965061394788108
  0
ARC
  5
3D386
  8
0
 10
6780.4863423765173138
 20
320.4804101935887957
 30
0.0
 40
0.0196626664550726
 50
313.513138708852523
 51
340.9622188339122886
  0
LINE
  5
3D387
  8
0
 10
6780.4621697717229836
 20
320.4399488044314239
 30
0.0
 11
6780.4375459436096207
 21
320.4442922905830073
 31
0.0
  0
LINE
  5
3D388
  8
0
 10
6780.4791607948227465
 20
320.4158689377239284
 30
0.0
 11
6779.5269293952242151
 21
320.4158685658239278
 31
0.0
  0
ARC
  5
3D389
  8
0
 10
6782.3109079652222135
 20
320.6186733900239005
 30
0.0
 40
2.8663941080991862
 50
179.9999760174362109
 51
182.6089616953001098
  0
ARC
  5
3D38A
  8
0
 10
6779.5266487506851263
 20
320.495354741681922
 30
0.0
 40
0.0794866712970264
 50
185.1662313355244862
 51
270.2022953130168048
  0
LINE
  5
3D38B
  8
0
 10
6780.4682571247330998
 20
320.790903948437915
 30
0.0
 11
6780.4965258452575654
 21
320.773768075659973
 31
0.0
  0
LINE
  5
3D38C
  8
0
 10
6780.4610273150728972
 20
320.7930564892770917
 30
0.0
 11
6779.5326205506507904
 21
320.7930722960874164
 31
0.0
  0
ARC
  5
3D38D
  8
0
 10
6780.4613198405086223
 20
320.7809017642964022
 30
0.0
 40
0.0121582445480572
 50
55.1098784890343225
 51
91.3786604070430144
  0
ARC
  5
3D38E
  8
0
 10
6780.4604486888856627
 20
320.8071142350481182
 30
0.0
 40
0.0098651507316688
 50
280.0472859461896178
 51
332.1670521118301735
  0
LINE
  5
3D38F
  8
0
 10
6780.4691725663124089
 20
320.8025082431225883
 30
0.0
 11
6780.4791607948227465
 21
320.8214802419238936
 31
0.0
  0
ARC
  5
3D390
  8
0
 10
6780.4704513372189467
 20
320.8260657893035273
 30
0.0
 40
0.0098428601819922
 50
332.2331025608021946
 51
21.8893362063020298
  0
ARC
  5
3D391
  8
0
 10
6779.5287991774621332
 20
320.738265910060079
 30
0.0
 40
0.0549394470522103
 50
86.0115090315939739
 51
179.0691715472858903
  0
ARC
  5
3D392
  8
0
 10
6782.05813619429955
 20
320.6186808820713736
 30
0.0
 40
2.587075995502099
 50
177.3308276209565975
 51
180.0001393539353955
  0
LINE
  5
3D393
  8
0
 10
6780.4965258452575654
 20
320.773768075659973
 30
0.0
 11
6779.5323390739240494
 21
320.7737717768238781
 31
0.0
  0
ARC
  5
3D394
  8
0
 10
6782.4203951506869998
 20
320.6186753633518265
 30
0.0
 40
2.917174168963228
 50
177.4528614083168918
 51
179.9999998803907886
  0
ARC
  5
3D395
  8
0
 10
6779.5327168003841507
 20
320.7471344930448254
 30
0.0
 40
0.0266399617943892
 50
90.812420729880202
 51
177.4528484849242034
  0
ARC
  5
3D396
  8
0
 10
6780.4860768633716361
 20
320.7566508667324001
 30
0.0
 40
0.0200544275394248
 50
46.5034938605211821
 51
58.5985540698849334
  0
ARC
  5
3D397
  8
0
 10
6780.4863790852996317
 20
320.7569693810914941
 30
0.0
 40
0.0196153495378846
 50
18.9952626817945784
 51
46.5034938605211821
  0
LINE
  5
3D398
  8
0
 10
6780.4621697717229836
 20
320.7974003752163981
 30
0.0
 11
6780.4375459436096207
 21
320.7930568890648146
 31
0.0
  0
LINE
  5
3D399
  8
0
 10
6780.4791607948227465
 20
320.8214802419238936
 30
0.0
 11
6779.5269293952242151
 21
320.8214806138238941
 31
0.0
  0
ARC
  5
3D39A
  8
0
 10
6782.3109079652222135
 20
320.6186757896239214
 30
0.0
 40
2.8663941080991862
 50
177.3910383046998902
 51
180.0000239825637038
  0
ARC
  5
3D39B
  8
0
 10
6779.5266487506851263
 20
320.7419944379659
 30
0.0
 40
0.0794866712970264
 50
89.7977046869831668
 51
174.8337686644754001
  0
ARC
  5
3D39C
  8
0
 10
6780.0263309570236743
 20
320.618674589823911
 30
0.0
 40
1.125001931398308
 50
206.3877589672675015
 51
153.6131845603048021
  0
ARC
  5
3D39D
  8
0
 10
6780.0263330257730559
 20
320.618674452473897
 30
0.0
 40
0.7505049753000002
 50
221.7758428248997973
 51
138.2258279529119136
  0
LINE
  5
3D39E
  8
0
 10
6780.0263330257730559
 20
321.118658131254108
 30
0.0
 11
6762.0263330257739653
 21
321.118658131254108
 31
0.0
  0
ARC
  5
3D39F
  8
0
 10
6780.0263248651654067
 20
320.618666291863974
 30
0.0
 40
0.4999918394566996
 50
270.0009351522820111
 51
89.9990648477180031
  0
LINE
  5
3D3A0
  8
0
 10
6780.0263330257730559
 20
320.118674452473897
 30
0.0
 11
6762.0263330257739653
 21
320.118674452473897
 31
0.0
  0
LINE
  5
3D3A1
  8
0
 10
6761.5844089268148309
 20
320.446445231209907
 30
0.0
 11
6761.5561402062912748
 21
320.4635811039877922
 31
0.0
  0
LINE
  5
3D3A2
  8
0
 10
6761.5916387364750335
 20
320.4442926903706166
 30
0.0
 11
6762.5200455008980498
 21
320.4442768835605193
 31
0.0
  0
ARC
  5
3D3A3
  8
0
 10
6761.5913462110383989
 20
320.4564474153514197
 30
0.0
 40
0.0121582445480572
 50
235.109878489034287
 51
271.3786604070430144
  0
ARC
  5
3D3A4
  8
0
 10
6761.5922173626631775
 20
320.4302349445997038
 30
0.0
 40
0.0098651507316688
 50
100.0472859461895041
 51
152.167052111830202
  0
LINE
  5
3D3A5
  8
0
 10
6761.5834934852364313
 20
320.4348409365251769
 30
0.0
 11
6761.5735052567242747
 21
320.4158689377239284
 31
0.0
  0
ARC
  5
3D3A6
  8
0
 10
6761.5822147143298935
 20
320.4112833903442947
 30
0.0
 40
0.0098428601819922
 50
152.2331025608023083
 51
202.3992769073392992
  0
ARC
  5
3D3A7
  8
0
 10
6762.523866874084888
 20
320.4990832695876861
 30
0.0
 40
0.0549394470522103
 50
266.0115090315940165
 51
359.0691715472859187
  0
ARC
  5
3D3A8
  8
0
 10
6759.9945298572483807
 20
320.6186682975763915
 30
0.0
 40
2.587075995502099
 50
357.3308276209598944
 51
0.0001393539354481
  0
LINE
  5
3D3A9
  8
0
 10
6761.5561402062912748
 20
320.4635811039877922
 30
0.0
 11
6762.5203269776229718
 21
320.463577402823887
 31
0.0
  0
ARC
  5
3D3AA
  8
0
 10
6759.6322709000223767
 20
320.6186738163240193
 30
0.0
 40
2.9171741698020042
 50
357.4528614085023719
 51
0.0000305045503366
  0
ARC
  5
3D3AB
  8
0
 10
6762.51994925116378
 20
320.4902146866029966
 30
0.0
 40
0.0266399617943892
 50
270.8124207298802162
 51
357.452848484924175
  0
ARC
  5
3D3AC
  8
0
 10
6761.5665891881762946
 20
320.4806983129154219
 30
0.0
 40
0.0200544275394248
 50
226.5034938605211892
 51
238.5985540698848979
  0
ARC
  5
3D3AD
  8
0
 10
6761.5663236750297074
 20
320.4804101935887957
 30
0.0
 40
0.0196626664550726
 50
199.0377811660875977
 51
226.4868612911473917
  0
LINE
  5
3D3AE
  8
0
 10
6761.5904962798258566
 20
320.4399488044314239
 30
0.0
 11
6761.6151201079392195
 21
320.4442922905830073
 31
0.0
  0
LINE
  5
3D3AF
  8
0
 10
6761.5735052567242747
 20
320.4158689377239284
 30
0.0
 11
6762.5257366563228061
 21
320.4158685658239278
 31
0.0
  0
ARC
  5
3D3B0
  8
0
 10
6759.7417580863248077
 20
320.6186733900239005
 30
0.0
 40
2.8663941080991862
 50
357.3910383046999186
 51
0.0000239825637344
  0
ARC
  5
3D3B1
  8
0
 10
6762.5260173008628044
 20
320.495354741681922
 30
0.0
 40
0.0794866712970264
 50
269.7977046869830815
 51
354.8337686644753717
  0
LINE
  5
3D3B2
  8
0
 10
6761.5844089268148309
 20
320.790903948437915
 30
0.0
 11
6761.5561402062912748
 21
320.773768075659973
 31
0.0
  0
LINE
  5
3D3B3
  8
0
 10
6761.5916387364750335
 20
320.7930564892770917
 30
0.0
 11
6762.5200455008980498
 21
320.7930722960874164
 31
0.0
  0
ARC
  5
3D3B4
  8
0
 10
6761.5913462110383989
 20
320.7809017642964022
 30
0.0
 40
0.0121582445480572
 50
88.6213395929569714
 51
124.8901215109656988
  0
ARC
  5
3D3B5
  8
0
 10
6761.5922173626631775
 20
320.8071142350481182
 30
0.0
 40
0.0098651507316688
 50
207.832947888169798
 51
259.9527140538103822
  0
LINE
  5
3D3B6
  8
0
 10
6761.5834934852364313
 20
320.8025082431225883
 30
0.0
 11
6761.5735052567242747
 21
320.8214802419238936
 31
0.0
  0
ARC
  5
3D3B7
  8
0
 10
6761.5822147143298935
 20
320.8260657893035273
 30
0.0
 40
0.0098428601819922
 50
158.1106637936979098
 51
207.7668974391976917
  0
ARC
  5
3D3B8
  8
0
 10
6762.523866874084888
 20
320.738265910060079
 30
0.0
 40
0.0549394470522103
 50
0.9308284527140596
 51
93.9884909684060545
  0
ARC
  5
3D3B9
  8
0
 10
6759.9945298572483807
 20
320.6186808820713736
 30
0.0
 40
2.587075995502099
 50
359.999860646064576
 51
2.6691723790433688
  0
LINE
  5
3D3BA
  8
0
 10
6761.5561402062912748
 20
320.773768075659973
 30
0.0
 11
6762.5203269776229718
 21
320.7737717768238781
 31
0.0
  0
ARC
  5
3D3BB
  8
0
 10
6759.6322709008582024
 20
320.6186753633517128
 30
0.0
 40
2.917174168966107
 50
0.0000001196092116
 51
2.5471385916798401
  0
ARC
  5
3D3BC
  8
0
 10
6762.51994925116378
 20
320.7471344930448254
 30
0.0
 40
0.0266399617943892
 50
2.547151515075794
 51
89.1875792701198264
  0
ARC
  5
3D3BD
  8
0
 10
6761.5665891881762946
 20
320.7566508667324001
 30
0.0
 40
0.0200544275394248
 50
121.4014459301151021
 51
133.4965061394788108
  0
ARC
  5
3D3BE
  8
0
 10
6761.5662869662473895
 20
320.7569693810914941
 30
0.0
 40
0.0196153495378846
 50
133.4965061394788108
 51
161.0047373182054002
  0
LINE
  5
3D3BF
  8
0
 10
6761.5904962798258566
 20
320.7974003752163981
 30
0.0
 11
6761.6151201079392195
 21
320.7930568890648146
 31
0.0
  0
LINE
  5
3D3C0
  8
0
 10
6761.5735052567242747
 20
320.8214802419238936
 30
0.0
 11
6762.5257366563228061
 21
320.8214806138238941
 31
0.0
  0
ARC
  5
3D3C1
  8
0
 10
6759.7417580863248077
 20
320.6186757896239214
 30
0.0
 40
2.8663941080991862
 50
359.9999760174363246
 51
2.608961695300084
  0
ARC
  5
3D3C2
  8
0
 10
6762.5260173008628044
 20
320.7419944379659
 30
0.0
 40
0.0794866712970264
 50
5.1662313355245582
 51
90.2022953130168474
  0
ARC
  5
3D3C3
  8
0
 10
6762.0263350945242564
 20
320.618674589823911
 30
0.0
 40
1.125001931398308
 50
26.3868154396951411
 51
333.6122410327325269
  0
ARC
  5
3D3C4
  8
0
 10
6762.0263330257739653
 20
320.618674452473897
 30
0.0
 40
0.7505049753000002
 50
41.7741720470881006
 51
318.2241571751001743
  0
ARC
  5
3D3C5
  8
0
 10
6762.026341186384343
 20
320.618666291863974
 30
0.0
 40
0.4999918394566996
 50
90.0009351522820111
 51
269.9990648477179889
  0
ENDSEC
  0
EOF
