  0
SECTION
  2
HEADER
  9
$ACADVER
  1
AC1009
  9
$INSBASE
 10
6787.8665878191777665
 20
328.5745781216756995
 30
0.0
  9
$EXTMIN
 10
6777.4284383968479233
 20
324.5790510513617164
 30
-0.0000000349181948
  9
$EXTMAX
 10
6798.1757662011223147
 20
328.5900371100233883
 30
0.0000000814935746
  9
$LIMMIN
 10
0.0
 20
0.0
  9
$LIMMAX
 10
11.6929133858000007
 20
8.2677165353999982
  9
$ORTHOMODE
 70
     0
  9
$REGENMODE
 70
     1
  9
$FILLMODE
 70
     1
  9
$QTEXTMODE
 70
     0
  9
$MIRRTEXT
 70
     0
  9
$DRAGMODE
 70
     2
  9
$LTSCALE
 40
0.6431102362
  9
$OSMODE
 70
  4095
  9
$ATTMODE
 70
     1
  9
$TEXTSIZE
 40
0.2
  9
$TRACEWID
 40
0.05
  9
$TEXTSTYLE
  7
STANDARD
  9
$CLAYER
  8
0
  9
$CELTYPE
  6
BYLAYER
  9
$CECOLOR
 62
   256
  9
$DIMSCALE
 40
1.0
  9
$DIMASZ
 40
0.1875
  9
$DIMEXO
 40
0.0625
  9
$DIMDLI
 40
0.4443307087
  9
$DIMRND
 40
0.0
  9
$DIMDLE
 40
0.0
  9
$DIMEXE
 40
0.125
  9
$DIMTP
 40
0.01
  9
$DIMTM
 40
0.01
  9
$DIMTXT
 40
2.0
  9
$DIMCEN
 40
0.1052362205
  9
$DIMTSZ
 40
0.0
  9
$DIMTOL
 70
     1
  9
$DIMLIM
 70
     0
  9
$DIMTIH
 70
     1
  9
$DIMTOH
 70
     1
  9
$DIMSE1
 70
     0
  9
$DIMSE2
 70
     0
  9
$DIMTAD
 70
     0
  9
$DIMZIN
 70
     0
  9
$DIMBLK
  1

  9
$DIMASO
 70
     1
  9
$DIMSHO
 70
     1
  9
$DIMPOST
  1
\X
  9
$DIMAPOST
  1

  9
$DIMALT
 70
     1
  9
$DIMALTD
 70
     2
  9
$DIMALTF
 40
25.3999999999999986
  9
$DIMLFAC
 40
1.0
  9
$DIMTOFL
 70
     0
  9
$DIMTVP
 40
0.0
  9
$DIMTIX
 70
     0
  9
$DIMSOXD
 70
     0
  9
$DIMSAH
 70
     0
  9
$DIMBLK1
  1

  9
$DIMBLK2
  1

  9
$DIMSTYLE
  2
STANDARD
  9
$DIMCLRD
 70
     0
  9
$DIMCLRE
 70
     0
  9
$DIMCLRT
 70
     0
  9
$DIMTFAC
 40
1.0
  9
$DIMGAP
 40
0.09
  9
$LUNITS
 70
     2
  9
$LUPREC
 70
     4
  9
$SKETCHINC
 40
0.1
  9
$FILLETRAD
 40
0.0
  9
$AUNITS
 70
     0
  9
$AUPREC
 70
     0
  9
$MENU
  1
.
  9
$ELEVATION
 40
0.0
  9
$PELEVATION
 40
0.0
  9
$THICKNESS
 40
0.0
  9
$LIMCHECK
 70
     0
  9
$BLIPMODE
 70
     0
  9
$CHAMFERA
 40
0.0
  9
$CHAMFERB
 40
0.0
  9
$SKPOLY
 70
     0
  9
$TDCREATE
 40
2458060.468368056230247
  9
$TDUPDATE
 40
2460332.4794328701682389
  9
$TDINDWG
 40
0.982784838
  9
$TDUSRTIMER
 40
0.982784838
  9
$USRTIMER
 70
     1
  9
$ANGBASE
 50
0.0
  9
$ANGDIR
 70
     0
  9
$PDMODE
 70
     0
  9
$PDSIZE
 40
0.3125
  9
$PLINEWID
 40
0.0
  9
$COORDS
 70
     1
  9
$SPLFRAME
 70
     0
  9
$SPLINETYPE
 70
     6
  9
$SPLINESEGS
 70
     8
  9
$ATTDIA
 70
     1
  9
$ATTREQ
 70
     1
  9
$HANDLING
 70
     1
  9
$HANDSEED
  5
3D616
  9
$SURFTAB1
 70
     6
  9
$SURFTAB2
 70
     6
  9
$SURFTYPE
 70
     6
  9
$SURFU
 70
     6
  9
$SURFV
 70
     6
  9
$UCSNAME
  2

  9
$UCSORG
 10
0.0
 20
0.0
 30
0.0
  9
$UCSXDIR
 10
1.0
 20
0.0
 30
0.0
  9
$UCSYDIR
 10
0.0
 20
1.0
 30
0.0
  9
$PUCSNAME
  2

  9
$PUCSORG
 10
0.0
 20
0.0
 30
0.0
  9
$PUCSXDIR
 10
1.0
 20
0.0
 30
0.0
  9
$PUCSYDIR
 10
0.0
 20
1.0
 30
0.0
  9
$USERI1
 70
     0
  9
$USERI2
 70
     0
  9
$USERI3
 70
     0
  9
$USERI4
 70
     0
  9
$USERI5
 70
     0
  9
$USERR1
 40
0.0
  9
$USERR2
 40
0.0
  9
$USERR3
 40
0.0
  9
$USERR4
 40
0.0
  9
$USERR5
 40
0.0
  9
$WORLDVIEW
 70
     1
  9
$SHADEDGE
 70
     3
  9
$SHADEDIF
 70
    70
  9
$TILEMODE
 70
     1
  9
$MAXACTVP
 70
    64
  9
$PLIMCHECK
 70
     0
  9
$PEXTMIN
 10
1.0000000000000000E+20
 20
1.0000000000000000E+20
 30
1.0000000000000000E+20
  9
$PEXTMAX
 10
-1.0000000000000000E+20
 20
-1.0000000000000000E+20
 30
-1.0000000000000000E+20
  9
$PLIMMIN
 10
0.0
 20
0.0
  9
$PLIMMAX
 10
12.0
 20
9.0
  9
$UNITMODE
 70
     0
  9
$VISRETAIN
 70
     1
  9
$PLINEGEN
 70
     0
  9
$PSLTSCALE
 70
     1
  0
ENDSEC
  0
SECTION
  2
TABLES
  0
TABLE
  2
VPORT
 70
     1
  0
VPORT
  2
*ACTIVE
 70
     0
 10
0.0
 20
0.0
 11
1.0
 21
1.0
 12
2876.4367458536730737
 22
194.0049389781534899
 13
0.0
 23
0.0
 14
1.0
 24
1.0
 15
0.0
 25
0.0
 16
0.0
 26
0.0
 36
60.4960186965801583
 17
3911.3653564453120453
 27
132.5796051025390057
 37
0.0
 40
9.8120576116009754
 41
2.1211111111111101
 42
50.0
 43
0.0
 44
0.0
 50
0.0
 51
0.0
 71
     0
 72
   100
 73
     1
 74
     1
 75
     0
 76
     0
 77
     0
 78
     0
  0
ENDTAB
  0
TABLE
  2
LTYPE
 70
     3
  0
LTYPE
  2
CONTINUOUS
 70
     0
  3
Solid line
 72
    65
 73
     0
 40
0.0
  0
LTYPE
  2
PHANTOM2
 70
     0
  3
___ _ _ ___ _ _ ___ _ _ ___ _ _
 72
    65
 73
     6
 40
1.25
 49
0.625
 49
-0.125
 49
0.125
 49
-0.125
 49
0.125
 49
-0.125
  0
ENDTAB
  0
TABLE
  2
LAYER
 70
     2
  0
LAYER
  2
0
 70
     0
 62
   255
  6
CONTINUOUS
  0
LAYER
  2
DEFPOINTS
 70
     0
 62
     7
  6
CONTINUOUS
  0
ENDTAB
  0
TABLE
  2
STYLE
 70
     1
  0
STYLE
  2
STANDARD
 70
     0
 40
0.0
 41
0.8
 50
0.0
 71
     0
 42
0.2
  3
txt
  4

  0
ENDTAB
  0
TABLE
  2
VIEW
 70
     0
  0
ENDTAB
  0
TABLE
  2
UCS
 70
     0
  0
ENDTAB
  0
TABLE
  2
APPID
 70
    11
  0
APPID
  2
ACAD
 70
     0
  0
APPID
  2
ACAD_MLEADERVER
 70
     0
  0
APPID
  2
ACAD_EXEMPT_FROM_CAD_STANDARDS
 70
     0
  0
APPID
  2
ACAD_NAV_VCDISPLAY
 70
     0
  0
APPID
  2
ACAECLAYERSTANDARD
 70
     0
  0
APPID
  2
ACCMTRANSPARENCY
 70
     0
  0
APPID
  2
ACAD_DSTYLE_DIMJAG
 70
     0
  0
APPID
  2
ACAD_DSTYLE_DIMTALN
 70
     0
  0
APPID
  2
ACDBATTR
 70
     0
  0
APPID
  2
ACADANNOTATIVE
 70
     0
  0
APPID
  2
DCO15
 70
     0
  0
ENDTAB
  0
TABLE
  2
DIMSTYLE
 70
     2
  0
DIMSTYLE
  2
STANDARD
 70
     0
  3

  4

  5

  6

  7

 40
1.0
 41
0.1875
 42
0.0625
 43
0.38
 44
0.125
 45
0.0
 46
0.0
 47
0.01
 48
0.01
140
0.15625
141
0.09
142
0.0
143
25.3999999999999986
144
1.0
145
0.0
146
1.0
147
0.09
 71
     1
 72
     0
 73
     1
 74
     1
 75
     0
 76
     0
 77
     0
 78
     4
170
     0
171
     2
172
     0
173
     0
174
     0
175
     0
176
     0
177
     0
178
     0
  0
ENDTAB
  0
ENDSEC
  0
SECTION
  2
BLOCKS
  0
BLOCK
  8
0
  2
$MODEL_SPACE
 70
     0
 10
0.0
 20
0.0
 30
0.0
  3
$MODEL_SPACE
  1

  0
ENDBLK
  5
21
  8
0
  0
BLOCK
 67
     1
  8
0
  2
$PAPER_SPACE
 70
     0
 10
0.0
 20
0.0
 30
0.0
  3
$PAPER_SPACE
  1

  0
ENDBLK
  5
1D
 67
     1
  8
0
  0
ENDSEC
  0
SECTION
  2
ENTITIES
  0
ATTDEF
  5
3A071
  8
DEFPOINTS
 10
6787.8619237682132734
 20
328.572755711542186
 30
0.0
 40
0.001
  1
P34594-BAF
  3

  2
MODELNUMBER
 70
     0
1001
ACDBATTR
1070
     0
1070
     1
  0
ATTDEF
  5
3A072
  8
DEFPOINTS
 10
6787.8617979585551439
 20
328.5710888711629991
 30
0.0
 40
0.001
  1
VICE
  3

  2
TRADENAME
 70
     0
1001
ACDBATTR
1070
     0
1070
     1
  0
ATTDEF
  5
3A073
  8
DEFPOINTS
 10
6787.8619237682132734
 20
328.5694223782089125
 30
0.0
 40
0.001
  1
TOWEL BAR
  3

  2
PRODUCT
 70
     0
1001
ACDBATTR
1070
     0
1070
     1
  0
LINE
  5
3D489
  8
0
 10
6795.7415878191777665
 20
328.5745781216756995
 30
0.0
 11
6797.991587819178676
 21
328.5745781216756995
 31
0.0
  0
LINE
  5
3D48A
  8
0
 10
6796.1623307772479166
 20
328.2413661484757768
 30
0.0
 11
6797.5708570448314276
 21
328.2413661484757768
 31
0.0
  0
LINE
  5
3D48B
  8
0
 10
6795.7415878191777665
 20
328.3683919535639006
 30
0.0
 11
6795.7415878191777665
 21
328.5745781216756995
 31
0.0
  0
LINE
  5
3D48C
  8
0
 10
6795.7717323855404175
 20
328.3300944739056035
 30
0.0
 11
6796.1160771000058958
 21
328.2468759519096011
 31
0.0
  0
ARC
  5
3D48D
  8
0
 10
6795.7809878191783355
 20
328.3683919535639006
 30
0.0
 40
0.0394
 50
179.9999999999934914
 51
256.4137128197871789
  0
ARC
  5
3D48E
  8
0
 10
6796.1623307772479166
 20
328.4382661484758046
 30
0.0
 40
0.1969
 50
256.4137128197356787
 51
270.0
  0
LINE
  5
3D48F
  8
0
 10
6795.7717323855404175
 20
328.3300944739056035
 30
0.0
 11
6797.9614432528160251
 21
328.3300944739056035
 31
0.0
  0
LINE
  5
3D490
  8
0
 10
6796.8665878191777665
 20
324.5804629098756777
 30
0.0
 11
6796.3587115690233986
 21
324.5804629098756777
 31
0.0
  0
ARC
  5
3D491
  8
0
 10
6796.3587115690233986
 20
324.600162909875678
 30
0.0
 40
0.0197
 50
220.0041879129962865
 51
270.0
  0
LINE
  5
3D492
  8
0
 10
6797.3665878191777665
 20
325.5884963868094815
 30
0.0
 11
6797.3665878191777665
 21
325.0804629098757914
 31
0.0
  0
LINE
  5
3D493
  8
0
 10
6797.3665878191777665
 20
325.6687032296877078
 30
0.0
 11
6797.3665878191777665
 21
328.2413661483757892
 31
0.0
  0
ARC
  5
3D494
  8
0
 10
6797.3563878191780532
 20
325.6687032296877078
 30
0.0
 40
0.0102
 50
320.0238504816920795
 51
0.0
  0
LINE
  5
3D495
  8
0
 10
6797.3595462170405881
 20
325.6035912522797844
 30
0.0
 11
6797.3280206379677111
 21
325.6300282764128156
 31
0.0
  0
LINE
  5
3D496
  8
0
 10
6797.3327480554944486
 20
325.6425298480722859
 30
0.0
 11
6797.3466996589058908
 21
325.6449898922679154
 31
0.0
  0
ARC
  5
3D497
  8
0
 10
6797.3449284474309025
 20
325.6550349313375818
 30
0.0
 40
0.0102
 50
280.0000003578105066
 51
320.0238504816920795
  0
LINE
  5
3D498
  8
0
 10
6797.3527448293170892
 20
325.6484817508717811
 30
0.0
 11
6797.3642042010642399
 21
325.662150049221907
 31
0.0
  0
ARC
  5
3D499
  8
0
 10
6797.3468878191779368
 20
325.5884963868094815
 30
0.0
 40
0.0197
 50
359.9999999999869829
 51
50.0171513701494419
  0
ARC
  5
3D49A
  8
0
 10
6797.4254369292129923
 20
325.6003353224455168
 30
0.0
 40
0.1018410786686281
 50
154.1487943938701903
 51
163.0485265325825139
  0
ARC
  5
3D49B
  8
0
 10
6796.8665878191777665
 20
325.0804629098757914
 30
0.0
 40
0.5
 50
270.0
 51
0.0
  0
LINE
  5
3D49C
  8
0
 10
6796.3178778150841026
 20
324.6193239997522255
 30
0.0
 11
6796.3436214191024192
 21
324.5874988909487229
 31
0.0
  0
LINE
  5
3D49D
  8
0
 10
6796.304100927573927
 20
324.6143222205878942
 30
0.0
 11
6796.3020406641790032
 21
324.6002606988756725
 31
0.0
  0
LINE
  5
3D49E
  8
0
 10
6796.2986746073784161
 20
324.594428361675682
 30
0.0
 11
6796.2847755422790215
 21
324.5827650668758224
 31
0.0
  0
ARC
  5
3D49F
  8
0
 10
6796.2924856254903716
 20
324.6018877576049135
 30
0.0
 40
0.0096925788331651
 50
309.6821351714074808
 51
350.3362073690826719
  0
ARC
  5
3D4A0
  8
0
 10
6796.2780552041213014
 20
324.5913899074997744
 30
0.0
 40
0.0109339297938355
 50
272.0580200925850818
 51
307.9251525371998923
  0
ARC
  5
3D4A1
  8
0
 10
6797.48456274930777
 20
325.5816428080026981
 30
0.0
 40
0.1638492787856195
 50
162.8241882987624933
 51
175.5801122045211002
  0
ARC
  5
3D4A2
  8
0
 10
6797.5379545866599074
 20
325.577515887085724
 30
0.0
 40
0.2174003737516163
 50
175.5801122045211002
 51
180.8070116583108984
  0
LINE
  5
3D4A3
  8
0
 10
6797.320575777312115
 20
325.5744539017758257
 30
0.0
 11
6797.320575800219558
 21
325.0804629098757914
 31
0.0
  0
LINE
  5
3D4A4
  8
0
 10
6796.3711389548116131
 20
324.626499664075709
 30
0.0
 11
6796.866499974213184
 21
324.6265010475756867
 31
0.0
  0
ARC
  5
3D4A5
  8
0
 10
6796.8662030292089185
 20
325.0808739074371942
 30
0.0
 40
0.4543729568921758
 50
270.0374443424717015
 51
359.9481737887098802
  0
ARC
  5
3D4A6
  8
0
 10
6796.378408777380173
 20
324.3335361118490141
 30
0.0
 40
0.293053531829266
 50
91.4214666348869969
 51
99.2325343767670205
  0
ARC
  5
3D4A7
  8
0
 10
6796.3605923542509117
 20
324.480525222963081
 30
0.0
 40
0.1452340106912886
 50
101.5992862243175949
 51
112.8903194237993972
  0
ARC
  5
3D4A8
  8
0
 10
6796.3021967214835968
 20
324.59517560180808
 30
0.0
 40
0.0156899547609775
 50
125.0601383740600028
 51
161.3483657199498111
  0
ARC
  5
3D4A9
  8
0
 10
6796.3342550216466407
 20
324.549493730391589
 30
0.0
 40
0.0714982694229716
 50
114.944855620898295
 51
125.0601383740600028
  0
LINE
  5
3D4AA
  8
0
 10
6796.287330794002628
 20
324.6001934579758199
 30
0.0
 11
6796.2847755422790215
 21
324.5827650668758224
 31
0.0
  0
ARC
  5
3D4AB
  8
0
 10
6797.3607913688947519
 20
325.5756160124466874
 30
0.0
 40
0.0154121290445904
 50
139.4013899622808879
 51
185.4482314597948118
  0
ARC
  5
3D4AC
  8
0
 10
6797.3290384470783465
 20
325.5856256264435729
 30
0.0
 40
0.0200507010278804
 50
0.0569175389529671
 51
48.722207960564937
  0
LINE
  5
3D4AD
  8
0
 10
6797.3422661036120189
 20
325.6006941271758137
 30
0.0
 11
6797.3243778197784195
 21
325.6161660732732912
 31
0.0
  0
LINE
  5
3D4AE
  8
0
 10
6797.3454488658117043
 20
325.5741526871756832
 30
0.0
 11
6797.3454258924130045
 21
325.080466468175814
 31
0.0
  0
ARC
  5
3D4AF
  8
0
 10
6796.8666193239841959
 20
325.0804415375196754
 30
0.0
 40
0.4788171331046618
 50
269.9990874439546928
 51
0.0029833012647216
  0
LINE
  5
3D4B0
  8
0
 10
6796.8666116978120044
 20
324.6016244044756718
 30
0.0
 11
6796.3728541665122975
 21
324.6016249039756758
 31
0.0
  0
LINE
  5
3D4B1
  8
0
 10
6796.3585141694247795
 20
324.5804638989005753
 30
0.0
 11
6796.3614285509129331
 21
324.5979407492757218
 31
0.0
  0
ARC
  5
3D4B2
  8
0
 10
6796.3714026543257205
 20
324.586477871166494
 30
0.0
 40
0.0152164217395304
 50
84.5261658749426346
 51
131.1196199153685882
  0
ARC
  5
3D4B3
  8
0
 10
6797.3746434290269463
 20
325.6258714426904817
 30
0.0
 40
0.0450035649186934
 50
140.8439556321930013
 51
155.20929656138631
  0
ARC
  5
3D4B4
  8
0
 10
6797.3541298257523522
 20
325.6425933860622877
 30
0.0
 40
0.0185379106673158
 50
121.8661479020135943
 51
140.8862466595259093
  0
ARC
  5
3D4B5
  8
0
 10
6797.3480843982615625
 20
325.6523185745468822
 30
0.0
 40
0.0070868633525061
 50
99.7786942709586384
 51
121.8661479020170049
  0
LINE
  5
3D4B6
  8
0
 10
6797.3468807437138821
 20
325.6593024737377959
 30
0.0
 11
6797.3642042010642399
 21
325.662150049221907
 31
0.0
  0
LINE
  5
3D4B7
  8
0
 10
6797.991587819178676
 20
328.3683919535639006
 30
0.0
 11
6797.991587819178676
 21
328.5745781216756995
 31
0.0
  0
LINE
  5
3D4B8
  8
0
 10
6797.9614432528160251
 20
328.3300944739056035
 30
0.0
 11
6797.6170985383496372
 21
328.2468759519096011
 31
0.0
  0
ARC
  5
3D4B9
  8
0
 10
6797.9521878191771975
 20
328.3683919535639006
 30
0.0
 40
0.0394
 50
283.5862871802127074
 51
0.0000000000065138
  0
ARC
  5
3D4BA
  8
0
 10
6797.5708448563482307
 20
328.438266174969101
 30
0.0
 40
0.1969000268706085
 50
270.0035467174685095
 51
283.5862867161611121
  0
LINE
  5
3D4BB
  8
0
 10
6796.3205946468387992
 20
325.2773133035756814
 30
0.0
 11
6796.3205964829876393
 21
328.2413661483757892
 31
0.0
  0
LINE
  5
3D4BC
  8
0
 10
6796.6697385739116726
 20
328.2413661483757892
 30
0.0
 11
6796.6697385739116726
 21
325.4151133035758221
 31
0.0
  0
ARC
  5
3D4BD
  8
0
 10
6796.5319385739130666
 20
325.4151133035758221
 30
0.0
 40
0.1378
 50
270.0
 51
0.0
  0
LINE
  5
3D4BE
  8
0
 10
6796.4546856149290761
 20
325.2773133035756814
 30
0.0
 11
6796.4546856149290761
 21
328.2413661483757892
 31
0.0
  0
ARC
  5
3D4BF
  8
0
 10
6796.5319716022131615
 20
325.4151031605758249
 30
0.0
 40
0.2771
 50
270.0
 51
0.0
  0
LINE
  5
3D4C0
  8
0
 10
6796.8090716022134075
 20
328.2413661483757892
 30
0.0
 11
6796.8090716022134075
 21
325.4151031605758249
 31
0.0
  0
LINE
  5
3D4C1
  8
0
 10
6796.5319385739130666
 20
325.2773133035756814
 30
0.0
 11
6779.2012370644442854
 21
325.2773133035756814
 31
0.0
  0
LINE
  5
3D4C2
  8
0
 10
6796.3586426655720061
 20
324.5804630303758245
 30
0.0
 11
6779.4547259640339689
 21
324.5804630303758245
 31
0.0
  0
LINE
  5
3D4C3
  8
0
 10
6796.5319716022131615
 20
325.1380031605758063
 30
0.0
 11
6779.2012040361441905
 21
325.1380031605758063
 31
0.0
  0
LINE
  5
3D4C4
  8
0
 10
6779.9915878191777665
 20
328.5745781216756995
 30
0.0
 11
6777.7415878191777665
 21
328.5745781216756995
 31
0.0
  0
LINE
  5
3D4C5
  8
0
 10
6779.5708448611076165
 20
328.2413661484757768
 30
0.0
 11
6778.1623185935241054
 21
328.2413661484757768
 31
0.0
  0
LINE
  5
3D4C6
  8
0
 10
6779.9915878191777665
 20
328.3683919535639006
 30
0.0
 11
6779.9915878191777665
 21
328.5745781216756995
 31
0.0
  0
LINE
  5
3D4C7
  8
0
 10
6779.9614432528151156
 20
328.3300944739056035
 30
0.0
 11
6779.6170985383505467
 21
328.2468759519096011
 31
0.0
  0
ARC
  5
3D4C8
  8
0
 10
6779.952187819178107
 20
328.3683919535639006
 30
0.0
 40
0.0394
 50
283.5862871802127074
 51
0.0000000000065138
  0
ARC
  5
3D4C9
  8
0
 10
6779.5708448611076165
 20
328.4382661484758046
 30
0.0
 40
0.1969
 50
270.0
 51
283.5862871802643213
  0
LINE
  5
3D4CA
  8
0
 10
6779.9614432528151156
 20
328.3300944739056035
 30
0.0
 11
6777.7717323855404175
 21
328.3300944739056035
 31
0.0
  0
LINE
  5
3D4CB
  8
0
 10
6778.866587819178676
 20
324.5804629098756777
 30
0.0
 11
6779.3744640693339534
 21
324.5804629098756777
 31
0.0
  0
ARC
  5
3D4CC
  8
0
 10
6779.3744640693339534
 20
324.600162909875678
 30
0.0
 40
0.0197
 50
270.0
 51
319.9958120870036851
  0
LINE
  5
3D4CD
  8
0
 10
6778.3665878191777665
 20
325.5884963868094815
 30
0.0
 11
6778.3665878191777665
 21
325.0804629098757914
 31
0.0
  0
LINE
  5
3D4CE
  8
0
 10
6778.3665878191777665
 20
325.6687032296877078
 30
0.0
 11
6778.3665878191777665
 21
328.2413661483757892
 31
0.0
  0
ARC
  5
3D4CF
  8
0
 10
6778.3767878191783893
 20
325.6687032296877078
 30
0.0
 40
0.0102
 50
180.0
 51
219.9761495183078921
  0
LINE
  5
3D4D0
  8
0
 10
6778.3736294213158544
 20
325.6035912522797844
 30
0.0
 11
6778.4051550003878219
 21
325.6300282764128156
 31
0.0
  0
LINE
  5
3D4D1
  8
0
 10
6778.4004275828629034
 20
325.6425298480722859
 30
0.0
 11
6778.3864759794505517
 21
325.6449898922679154
 31
0.0
  0
ARC
  5
3D4D2
  8
0
 10
6778.3882471909246306
 20
325.6550349313375818
 30
0.0
 40
0.0102
 50
219.9761495183078921
 51
259.9999996421893798
  0
LINE
  5
3D4D3
  8
0
 10
6778.3804308090411723
 20
325.6484817508717811
 30
0.0
 11
6778.3689714372922026
 21
325.662150049221907
 31
0.0
  0
ARC
  5
3D4D4
  8
0
 10
6778.3862878191775962
 20
325.5884963868094815
 30
0.0
 40
0.0197
 50
129.9828486298505936
 51
180.0000000000129887
  0
ARC
  5
3D4D5
  8
0
 10
6778.3077387091443597
 20
325.6003353224455168
 30
0.0
 40
0.1018410786686281
 50
16.951473467417479
 51
25.8512056061297884
  0
ARC
  5
3D4D6
  8
0
 10
6778.866587819178676
 20
325.0804629098757914
 30
0.0
 40
0.5
 50
180.0
 51
270.0
  0
LINE
  5
3D4D7
  8
0
 10
6779.4152978232723399
 20
324.6193239997522255
 30
0.0
 11
6779.3895542192540233
 21
324.5874988909487229
 31
0.0
  0
LINE
  5
3D4D8
  8
0
 10
6779.429074710783425
 20
324.6143222205878942
 30
0.0
 11
6779.4311349741792583
 21
324.6002606988756725
 31
0.0
  0
LINE
  5
3D4D9
  8
0
 10
6779.4345010309780264
 20
324.594428361675682
 30
0.0
 11
6779.4484000960783305
 21
324.5827650668758224
 31
0.0
  0
ARC
  5
3D4DA
  8
0
 10
6779.4406900128660709
 20
324.6018877576049135
 30
0.0
 40
0.0096925788331651
 50
189.6637926309172997
 51
230.3178648285924055
  0
ARC
  5
3D4DB
  8
0
 10
6779.4551207643025919
 20
324.5913905039769816
 30
0.0
 40
0.0109346031733136
 50
232.0754042115291043
 51
267.930852514404819
  0
ARC
  5
3D4DC
  8
0
 10
6778.248612889047763
 20
325.5816428080026981
 30
0.0
 40
0.1638492787856195
 50
4.4198877954788927
 51
17.1758117012374996
  0
ARC
  5
3D4DD
  8
0
 10
6778.1952210516956256
 20
325.577515887085724
 30
0.0
 40
0.2174003737516163
 50
359.1929883416891016
 51
4.4198877954788927
  0
LINE
  5
3D4DE
  8
0
 10
6778.412599861045237
 20
325.5744539017758257
 30
0.0
 11
6778.4125998381350655
 21
325.0804629098757914
 31
0.0
  0
LINE
  5
3D4DF
  8
0
 10
6779.3620366835439199
 20
324.626499664075709
 30
0.0
 11
6778.866675664144168
 21
324.6265010475756867
 31
0.0
  0
ARC
  5
3D4E0
  8
0
 10
6778.8669726091466146
 20
325.0808739074371942
 30
0.0
 40
0.4543729568921758
 50
180.0518262112900914
 51
269.9625556575281848
  0
ARC
  5
3D4E1
  8
0
 10
6779.354766860977179
 20
324.3335361118490141
 30
0.0
 40
0.293053531829266
 50
80.7674656232329937
 51
88.5785333651130173
  0
ARC
  5
3D4E2
  8
0
 10
6779.3725832841064403
 20
324.480525222963081
 30
0.0
 40
0.1452340106912886
 50
67.1096805762006312
 51
78.4007137756823624
  0
ARC
  5
3D4E3
  8
0
 10
6779.4309789168737552
 20
324.59517560180808
 30
0.0
 40
0.0156899547609775
 50
18.6516342800501889
 51
54.9398616259399901
  0
ARC
  5
3D4E4
  8
0
 10
6779.3989206167107113
 20
324.549493730391589
 30
0.0
 40
0.0714982694229716
 50
54.9398616259399901
 51
65.0551443791016624
  0
LINE
  5
3D4E5
  8
0
 10
6779.4458448443529051
 20
324.6001934579758199
 30
0.0
 11
6779.4484000960783305
 21
324.5827650668758224
 31
0.0
  0
ARC
  5
3D4E6
  8
0
 10
6778.3723842694607811
 20
325.5756160124466874
 30
0.0
 40
0.0154121290445904
 50
354.5517685402052166
 51
40.5986100377190624
  0
ARC
  5
3D4E7
  8
0
 10
6778.4041371912771865
 20
325.5856256264435729
 30
0.0
 40
0.0200507010278804
 50
131.2777920394350986
 51
179.9430824610469983
  0
LINE
  5
3D4E8
  8
0
 10
6778.3909095347444236
 20
325.6006941271758137
 30
0.0
 11
6778.408797818578023
 21
325.6161660732732912
 31
0.0
  0
LINE
  5
3D4E9
  8
0
 10
6778.3877267725438287
 20
325.5741526871756832
 30
0.0
 11
6778.387749745943438
 21
325.080466468175814
 31
0.0
  0
ARC
  5
3D4EA
  8
0
 10
6778.8665563143731561
 20
325.0804415375196754
 30
0.0
 40
0.4788171331046618
 50
179.9970166987353082
 51
270.0009125560451935
  0
LINE
  5
3D4EB
  8
0
 10
6778.8665639405426191
 20
324.6016244044756718
 30
0.0
 11
6779.3603214718450545
 21
324.6016249039756758
 31
0.0
  0
LINE
  5
3D4EC
  8
0
 10
6779.3746614689307535
 20
324.5804638989005753
 30
0.0
 11
6779.3717470874444189
 21
324.5979407492757218
 31
0.0
  0
ARC
  5
3D4ED
  8
0
 10
6779.361772984030722
 20
324.586477871166494
 30
0.0
 40
0.0152164217395304
 50
48.8803800846313194
 51
95.4738341250054958
  0
ARC
  5
3D4EE
  8
0
 10
6778.3585322093304057
 20
325.6258714426904817
 30
0.0
 40
0.0450035649186934
 50
24.7907034386137113
 51
39.1560443678069774
  0
ARC
  5
3D4EF
  8
0
 10
6778.3790458126059093
 20
325.6425933860622877
 30
0.0
 40
0.0185379106673158
 50
39.1137533404741333
 51
58.1338520979863986
  0
ARC
  5
3D4F0
  8
0
 10
6778.3850912400957895
 20
325.6523185745468822
 30
0.0
 40
0.0070868633525061
 50
58.1338520979829667
 51
80.2213057290413758
  0
LINE
  5
3D4F1
  8
0
 10
6778.3862948946416509
 20
325.6593024737377959
 30
0.0
 11
6778.3689714372922026
 21
325.662150049221907
 31
0.0
  0
LINE
  5
3D4F2
  8
0
 10
6777.7415878191777665
 20
328.3683919535639006
 30
0.0
 11
6777.7415878191777665
 21
328.5745781216756995
 31
0.0
  0
LINE
  5
3D4F3
  8
0
 10
6777.7717323855404175
 20
328.3300944739056035
 30
0.0
 11
6778.1160771000058958
 21
328.2468759519096011
 31
0.0
  0
ARC
  5
3D4F4
  8
0
 10
6777.780987819179245
 20
328.3683919535639006
 30
0.0
 40
0.0394
 50
179.9999999999934914
 51
256.4137128197871789
  0
ARC
  5
3D4F5
  8
0
 10
6778.1623307820091213
 20
328.4382661749692147
 30
0.0
 40
0.1969000268706708
 50
256.4137132838388879
 51
269.9964532825314905
  0
LINE
  5
3D4F6
  8
0
 10
6779.4125809915167338
 20
325.2773133035756814
 30
0.0
 11
6779.4125791553678937
 21
328.2413661483757892
 31
0.0
  0
LINE
  5
3D4F7
  8
0
 10
6779.0634370644438604
 20
328.2413661483757892
 30
0.0
 11
6779.0634370644438604
 21
325.4151133035758221
 31
0.0
  0
ARC
  5
3D4F8
  8
0
 10
6779.2012370644442854
 20
325.4151133035758221
 30
0.0
 40
0.1378
 50
180.0
 51
270.0
  0
LINE
  5
3D4F9
  8
0
 10
6779.2784900234255474
 20
325.2773133035756814
 30
0.0
 11
6779.2784900234255474
 21
328.2413661483757892
 31
0.0
  0
ARC
  5
3D4FA
  8
0
 10
6779.2012040361441905
 20
325.4151031605758249
 30
0.0
 40
0.2771
 50
180.0
 51
270.0
  0
LINE
  5
3D4FB
  8
0
 10
6778.9241040361439445
 20
328.2413661483757892
 30
0.0
 11
6778.9241040361439445
 21
325.4151031605758249
 31
0.0
  0
LINE
  5
3D4FC
  8
0
 10
6779.3745329727844364
 20
324.5804630303758245
 30
0.0
 11
6779.3746100321750419
 21
324.5804630303758245
 31
0.0
  0
ENDSEC
  0
EOF
