  0
SECTION
  2
HEADER
  9
$ACADVER
  1
AC1009
  9
$INSBASE
 10
6775.3205202392828141
 20
334.9886660312101867
 30
0.0
  9
$EXTMIN
 10
6765.0432351463141458
 20
330.9929902390587131
 30
-0.0000000349181948
  9
$EXTMAX
 10
6785.7510640932932802
 20
335.0056146961899231
 30
0.0000000814935746
  9
$LIMMIN
 10
0.0
 20
0.0
  9
$LIMMAX
 10
11.6929133858000007
 20
8.2677165353999982
  9
$ORTHOMODE
 70
     0
  9
$REGENMODE
 70
     1
  9
$FILLMODE
 70
     1
  9
$QTEXTMODE
 70
     0
  9
$MIRRTEXT
 70
     0
  9
$DRAGMODE
 70
     2
  9
$LTSCALE
 40
0.6431102362
  9
$OSMODE
 70
  4095
  9
$ATTMODE
 70
     1
  9
$TEXTSIZE
 40
0.2
  9
$TRACEWID
 40
0.05
  9
$TEXTSTYLE
  7
STANDARD
  9
$CLAYER
  8
0
  9
$CELTYPE
  6
BYLAYER
  9
$CECOLOR
 62
   256
  9
$DIMSCALE
 40
1.0
  9
$DIMASZ
 40
0.1875
  9
$DIMEXO
 40
0.0625
  9
$DIMDLI
 40
0.4443307087
  9
$DIMRND
 40
0.0
  9
$DIMDLE
 40
0.0
  9
$DIMEXE
 40
0.125
  9
$DIMTP
 40
0.01
  9
$DIMTM
 40
0.01
  9
$DIMTXT
 40
2.0
  9
$DIMCEN
 40
0.1052362205
  9
$DIMTSZ
 40
0.0
  9
$DIMTOL
 70
     1
  9
$DIMLIM
 70
     0
  9
$DIMTIH
 70
     1
  9
$DIMTOH
 70
     1
  9
$DIMSE1
 70
     0
  9
$DIMSE2
 70
     0
  9
$DIMTAD
 70
     0
  9
$DIMZIN
 70
     0
  9
$DIMBLK
  1

  9
$DIMASO
 70
     1
  9
$DIMSHO
 70
     1
  9
$DIMPOST
  1
\X
  9
$DIMAPOST
  1

  9
$DIMALT
 70
     1
  9
$DIMALTD
 70
     2
  9
$DIMALTF
 40
25.3999999999999986
  9
$DIMLFAC
 40
1.0
  9
$DIMTOFL
 70
     0
  9
$DIMTVP
 40
0.0
  9
$DIMTIX
 70
     0
  9
$DIMSOXD
 70
     0
  9
$DIMSAH
 70
     0
  9
$DIMBLK1
  1

  9
$DIMBLK2
  1

  9
$DIMSTYLE
  2
STANDARD
  9
$DIMCLRD
 70
     0
  9
$DIMCLRE
 70
     0
  9
$DIMCLRT
 70
     0
  9
$DIMTFAC
 40
1.0
  9
$DIMGAP
 40
0.09
  9
$LUNITS
 70
     2
  9
$LUPREC
 70
     4
  9
$SKETCHINC
 40
0.1
  9
$FILLETRAD
 40
0.0
  9
$AUNITS
 70
     0
  9
$AUPREC
 70
     0
  9
$MENU
  1
.
  9
$ELEVATION
 40
0.0
  9
$PELEVATION
 40
0.0
  9
$THICKNESS
 40
0.0
  9
$LIMCHECK
 70
     0
  9
$BLIPMODE
 70
     0
  9
$CHAMFERA
 40
0.0
  9
$CHAMFERB
 40
0.0
  9
$SKPOLY
 70
     0
  9
$TDCREATE
 40
2458060.468368056230247
  9
$TDUPDATE
 40
2460332.4858101857826114
  9
$TDINDWG
 40
0.9808635417
  9
$TDUSRTIMER
 40
0.9808635417
  9
$USRTIMER
 70
     1
  9
$ANGBASE
 50
0.0
  9
$ANGDIR
 70
     0
  9
$PDMODE
 70
     0
  9
$PDSIZE
 40
0.3125
  9
$PLINEWID
 40
0.0
  9
$COORDS
 70
     1
  9
$SPLFRAME
 70
     0
  9
$SPLINETYPE
 70
     6
  9
$SPLINESEGS
 70
     8
  9
$ATTDIA
 70
     1
  9
$ATTREQ
 70
     1
  9
$HANDLING
 70
     1
  9
$HANDSEED
  5
3D4D2
  9
$SURFTAB1
 70
     6
  9
$SURFTAB2
 70
     6
  9
$SURFTYPE
 70
     6
  9
$SURFU
 70
     6
  9
$SURFV
 70
     6
  9
$UCSNAME
  2

  9
$UCSORG
 10
0.0
 20
0.0
 30
0.0
  9
$UCSXDIR
 10
1.0
 20
0.0
 30
0.0
  9
$UCSYDIR
 10
0.0
 20
1.0
 30
0.0
  9
$PUCSNAME
  2

  9
$PUCSORG
 10
0.0
 20
0.0
 30
0.0
  9
$PUCSXDIR
 10
1.0
 20
0.0
 30
0.0
  9
$PUCSYDIR
 10
0.0
 20
1.0
 30
0.0
  9
$USERI1
 70
     0
  9
$USERI2
 70
     0
  9
$USERI3
 70
     0
  9
$USERI4
 70
     0
  9
$USERI5
 70
     0
  9
$USERR1
 40
0.0
  9
$USERR2
 40
0.0
  9
$USERR3
 40
0.0
  9
$USERR4
 40
0.0
  9
$USERR5
 40
0.0
  9
$WORLDVIEW
 70
     1
  9
$SHADEDGE
 70
     3
  9
$SHADEDIF
 70
    70
  9
$TILEMODE
 70
     1
  9
$MAXACTVP
 70
    64
  9
$PLIMCHECK
 70
     0
  9
$PEXTMIN
 10
1.0000000000000000E+20
 20
1.0000000000000000E+20
 30
1.0000000000000000E+20
  9
$PEXTMAX
 10
-1.0000000000000000E+20
 20
-1.0000000000000000E+20
 30
-1.0000000000000000E+20
  9
$PLIMMIN
 10
0.0
 20
0.0
  9
$PLIMMAX
 10
12.0
 20
9.0
  9
$UNITMODE
 70
     0
  9
$VISRETAIN
 70
     1
  9
$PLINEGEN
 70
     0
  9
$PSLTSCALE
 70
     1
  0
ENDSEC
  0
SECTION
  2
TABLES
  0
TABLE
  2
VPORT
 70
     1
  0
VPORT
  2
*ACTIVE
 70
     0
 10
0.0
 20
0.0
 11
1.0
 21
1.0
 12
2864.0317931744898488
 22
200.4196973650853124
 13
0.0
 23
0.0
 14
1.0
 24
1.0
 15
0.0
 25
0.0
 16
0.0
 26
0.0
 36
60.4960186965801583
 17
3911.3653564453120453
 27
132.5796051025390057
 37
0.0
 40
9.7956449621379882
 41
2.1211111111111101
 42
50.0
 43
0.0
 44
0.0
 50
0.0
 51
0.0
 71
     0
 72
   100
 73
     1
 74
     1
 75
     0
 76
     0
 77
     0
 78
     0
  0
ENDTAB
  0
TABLE
  2
LTYPE
 70
     2
  0
LTYPE
  2
CONTINUOUS
 70
     0
  3
Solid line
 72
    65
 73
     0
 40
0.0
  0
LTYPE
  2
PHANTOM2
 70
     0
  3
___ _ _ ___ _ _ ___ _ _ ___ _ _
 72
    65
 73
     6
 40
1.25
 49
0.625
 49
-0.125
 49
0.125
 49
-0.125
 49
0.125
 49
-0.125
  0
ENDTAB
  0
TABLE
  2
LAYER
 70
     2
  0
LAYER
  2
0
 70
     0
 62
   255
  6
CONTINUOUS
  0
LAYER
  2
DEFPOINTS
 70
     0
 62
     7
  6
CONTINUOUS
  0
ENDTAB
  0
TABLE
  2
STYLE
 70
     1
  0
STYLE
  2
STANDARD
 70
     0
 40
0.0
 41
0.8
 50
0.0
 71
     0
 42
0.2
  3
txt
  4

  0
ENDTAB
  0
TABLE
  2
VIEW
 70
     0
  0
ENDTAB
  0
TABLE
  2
UCS
 70
     0
  0
ENDTAB
  0
TABLE
  2
APPID
 70
    11
  0
APPID
  2
ACAD
 70
     0
  0
APPID
  2
ACAD_MLEADERVER
 70
     0
  0
APPID
  2
ACAD_EXEMPT_FROM_CAD_STANDARDS
 70
     0
  0
APPID
  2
ACAD_NAV_VCDISPLAY
 70
     0
  0
APPID
  2
ACAECLAYERSTANDARD
 70
     0
  0
APPID
  2
ACCMTRANSPARENCY
 70
     0
  0
APPID
  2
ACAD_DSTYLE_DIMJAG
 70
     0
  0
APPID
  2
ACAD_DSTYLE_DIMTALN
 70
     0
  0
APPID
  2
ACDBATTR
 70
     0
  0
APPID
  2
ACADANNOTATIVE
 70
     0
  0
APPID
  2
DCO15
 70
     0
  0
ENDTAB
  0
TABLE
  2
DIMSTYLE
 70
     1
  0
DIMSTYLE
  2
STANDARD
 70
     0
  3

  4

  5

  6

  7

 40
1.0
 41
0.1875
 42
0.0625
 43
0.38
 44
0.125
 45
0.0
 46
0.0
 47
0.01
 48
0.01
140
0.15625
141
0.09
142
0.0
143
25.3999999999999986
144
1.0
145
0.0
146
1.0
147
0.09
 71
     1
 72
     0
 73
     1
 74
     1
 75
     0
 76
     0
 77
     0
 78
     4
170
     0
171
     2
172
     0
173
     0
174
     0
175
     0
176
     0
177
     0
178
     0
  0
ENDTAB
  0
ENDSEC
  0
SECTION
  2
BLOCKS
  0
BLOCK
  8
0
  2
$MODEL_SPACE
 70
     0
 10
0.0
 20
0.0
 30
0.0
  3
$MODEL_SPACE
  1

  0
ENDBLK
  5
21
  8
0
  0
BLOCK
 67
     1
  8
0
  2
$PAPER_SPACE
 70
     0
 10
0.0
 20
0.0
 30
0.0
  3
$PAPER_SPACE
  1

  0
ENDBLK
  5
1D
 67
     1
  8
0
  0
ENDSEC
  0
SECTION
  2
ENTITIES
  0
ATTDEF
  5
3A071
  8
DEFPOINTS
 10
6775.3154218877743915
 20
334.9865786630360276
 30
0.0
 40
0.001
  1
P34594-CP
  3

  2
MODELNUMBER
 70
     0
1001
ACDBATTR
1070
     0
1070
     1
  0
ATTDEF
  5
3A072
  8
DEFPOINTS
 10
6775.3152960781180809
 20
334.9849118226567839
 30
0.0
 40
0.001
  1
VICE
  3

  2
TRADENAME
 70
     0
1001
ACDBATTR
1070
     0
1070
     1
  0
ATTDEF
  5
3A073
  8
DEFPOINTS
 10
6775.3154218877743915
 20
334.9832453297025836
 30
0.0
 40
0.001
  1
TOWEL BAR
  3

  2
PRODUCT
 70
     0
1001
ACDBATTR
1070
     0
1070
     1
  0
LINE
  5
3D2C6
  8
0
 10
6783.1955202392828141
 20
334.9886660312101867
 30
0.0
 11
6785.4455202392819047
 21
334.9886660312101867
 31
0.0
  0
LINE
  5
3D2C7
  8
0
 10
6783.6162631973538737
 20
334.6554540580100934
 30
0.0
 11
6785.0247894649373848
 21
334.6554540580100934
 31
0.0
  0
LINE
  5
3D2C8
  8
0
 10
6783.1955202392828141
 20
334.7824798630982741
 30
0.0
 11
6783.1955202392828141
 21
334.9886660312101867
 31
0.0
  0
LINE
  5
3D2C9
  8
0
 10
6783.2256648056445556
 20
334.7441823834400907
 30
0.0
 11
6783.5700095201109434
 21
334.6609638614439746
 31
0.0
  0
ARC
  5
3D2CA
  8
0
 10
6783.2349202392842926
 20
334.7824798630982741
 30
0.0
 40
0.0394
 50
179.9999999999934914
 51
256.4137128197871789
  0
ARC
  5
3D2CB
  8
0
 10
6783.6162631973538737
 20
334.8523540580101781
 30
0.0
 40
0.1969
 50
256.4137128197356787
 51
270.0
  0
LINE
  5
3D2CC
  8
0
 10
6783.2256648056445556
 20
334.7441823834400907
 30
0.0
 11
6785.4153756729219822
 21
334.7441823834400907
 31
0.0
  0
LINE
  5
3D2CD
  8
0
 10
6784.3205202392819047
 20
330.9945508194102217
 30
0.0
 11
6783.8126439891284463
 21
330.9945508194102217
 31
0.0
  0
ARC
  5
3D2CE
  8
0
 10
6783.8126439891284463
 20
331.014250819410222
 30
0.0
 40
0.0197
 50
220.0041879129962865
 51
270.0
  0
LINE
  5
3D2CF
  8
0
 10
6784.8205202392828141
 20
332.0025842963439118
 30
0.0
 11
6784.8205202392828141
 21
331.4945508194102217
 31
0.0
  0
LINE
  5
3D2D0
  8
0
 10
6784.8205202392828141
 20
332.0827911392220813
 30
0.0
 11
6784.8205202392828141
 21
334.6554540579102195
 31
0.0
  0
ARC
  5
3D2D1
  8
0
 10
6784.8103202392840103
 20
332.0827911392220813
 30
0.0
 40
0.0102
 50
320.0238504816920795
 51
0.0
  0
LINE
  5
3D2D2
  8
0
 10
6784.8134786371438167
 20
332.0176791618142147
 30
0.0
 11
6784.7819530580727587
 21
332.0441161859470753
 31
0.0
  0
LINE
  5
3D2D3
  8
0
 10
6784.7866804755976773
 20
332.0566177576067162
 30
0.0
 11
6784.8006320790109385
 21
332.0590778018022888
 31
0.0
  0
ARC
  5
3D2D4
  8
0
 10
6784.7988608675359501
 20
332.0691228408720121
 30
0.0
 40
0.0102
 50
280.0000003578105066
 51
320.0238504816920795
  0
LINE
  5
3D2D5
  8
0
 10
6784.8066772494203178
 20
332.0625696604062114
 30
0.0
 11
6784.8181366211692875
 21
332.0762379587562805
 31
0.0
  0
ARC
  5
3D2D6
  8
0
 10
6784.8008202392829844
 20
332.0025842963439118
 30
0.0
 40
0.0197
 50
359.9999999999869829
 51
50.0171513701494419
  0
ARC
  5
3D2D7
  8
0
 10
6784.8793693493180399
 20
332.0144232319798903
 30
0.0
 40
0.1018410786686281
 50
154.1487943938701903
 51
163.0485265325825139
  0
ARC
  5
3D2D8
  8
0
 10
6784.3205202392819047
 20
331.4945508194102217
 30
0.0
 40
0.5
 50
270.0
 51
0.0
  0
LINE
  5
3D2D9
  8
0
 10
6783.7718102351882408
 20
331.033411909286599
 30
0.0
 11
6783.7975538392065573
 21
331.0015868004830963
 31
0.0
  0
LINE
  5
3D2DA
  8
0
 10
6783.7580333476780652
 20
331.0284101301223245
 30
0.0
 11
6783.7559730842822319
 21
331.0143486084101028
 31
0.0
  0
LINE
  5
3D2DB
  8
0
 10
6783.7526070274843732
 20
331.008516271210226
 30
0.0
 11
6783.7387079623840691
 21
330.9968529764101959
 31
0.0
  0
ARC
  5
3D2DC
  8
0
 10
6783.7464180455954192
 20
331.015975667139287
 30
0.0
 40
0.0096925788331651
 50
309.6821351714074808
 51
350.3362073690826719
  0
ARC
  5
3D2DD
  8
0
 10
6783.731987624226349
 20
331.0054778170343184
 30
0.0
 40
0.0109339297938355
 50
272.0580200925850818
 51
307.9251525371998923
  0
ARC
  5
3D2DE
  8
0
 10
6784.9384951694128176
 20
331.9957307175371284
 30
0.0
 40
0.1638492787856195
 50
162.8241882987624933
 51
175.5801122045211002
  0
ARC
  5
3D2DF
  8
0
 10
6784.991887006764955
 20
331.9916037966202111
 30
0.0
 40
0.2174003737516163
 50
175.5801122045211002
 51
180.8070116583108984
  0
LINE
  5
3D2E0
  8
0
 10
6784.7745081974171626
 20
331.9885418113101991
 30
0.0
 11
6784.7745082203264246
 21
331.4945508194102217
 31
0.0
  0
LINE
  5
3D2E1
  8
0
 10
6783.8250713749166607
 20
331.0405875736101962
 30
0.0
 11
6784.3204323943164127
 21
331.0405889571101739
 31
0.0
  0
ARC
  5
3D2E2
  8
0
 10
6784.3201354493148756
 20
331.4949618169716246
 30
0.0
 40
0.4543729568921758
 50
270.0374443424717015
 51
359.9481737887098802
  0
ARC
  5
3D2E3
  8
0
 10
6783.8323411974843111
 20
330.7476240213833876
 30
0.0
 40
0.293053531829266
 50
91.4214666348869969
 51
99.2325343767670205
  0
ARC
  5
3D2E4
  8
0
 10
6783.8145247743550499
 20
330.894613132497625
 30
0.0
 40
0.1452340106912886
 50
101.5992862243175949
 51
112.8903194237993972
  0
ARC
  5
3D2E5
  8
0
 10
6783.7561291415877349
 20
331.009263511342624
 30
0.0
 40
0.0156899547609775
 50
125.0601383740600028
 51
161.3483657199498111
  0
ARC
  5
3D2E6
  8
0
 10
6783.7881874417498693
 20
330.9635816399260193
 30
0.0
 40
0.0714982694229716
 50
114.944855620898295
 51
125.0601383740600028
  0
LINE
  5
3D2E7
  8
0
 10
6783.7412632141076756
 20
331.0142813675101934
 30
0.0
 11
6783.7387079623840691
 21
330.9968529764101959
 31
0.0
  0
ARC
  5
3D2E8
  8
0
 10
6784.8147237890007091
 20
331.9897039219811177
 30
0.0
 40
0.0154121290445904
 50
139.4013899622808879
 51
185.4482314597948118
  0
ARC
  5
3D2E9
  8
0
 10
6784.7829708671833941
 20
331.9997135359780032
 30
0.0
 40
0.0200507010278804
 50
0.0569175389529671
 51
48.722207960564937
  0
LINE
  5
3D2EA
  8
0
 10
6784.7961985237179761
 20
332.0147820367101872
 30
0.0
 11
6784.7783102398825577
 21
332.0302539828077784
 31
0.0
  0
LINE
  5
3D2EB
  8
0
 10
6784.7993812859167519
 20
331.9882405967102272
 30
0.0
 11
6784.7993583125171426
 21
331.4945543777101875
 31
0.0
  0
ARC
  5
3D2EC
  8
0
 10
6784.3205517440892436
 20
331.4945294470541057
 30
0.0
 40
0.4788171331046618
 50
269.9990874439546928
 51
0.0029833012647216
  0
LINE
  5
3D2ED
  8
0
 10
6784.3205441179170521
 20
331.0157123140101021
 30
0.0
 11
6783.8267865866173452
 21
331.0157128135102198
 31
0.0
  0
LINE
  5
3D2EE
  8
0
 10
6783.8124465895298272
 20
330.9945518084350056
 30
0.0
 11
6783.8153609710179808
 21
331.012028658810209
 31
0.0
  0
ARC
  5
3D2EF
  8
0
 10
6783.8253350744307681
 20
331.0005657807009243
 30
0.0
 40
0.0152164217395304
 50
84.5261658749426346
 51
131.1196199153685882
  0
ARC
  5
3D2F0
  8
0
 10
6784.8285758491319939
 20
332.0399593522250257
 30
0.0
 40
0.0450035649186934
 50
140.8439556321930013
 51
155.20929656138631
  0
ARC
  5
3D2F1
  8
0
 10
6784.8080622458546713
 20
332.056681295596718
 30
0.0
 40
0.0185379106673158
 50
121.8661479020135943
 51
140.8862466595259093
  0
ARC
  5
3D2F2
  8
0
 10
6784.8020168183647911
 20
332.0664064840813126
 30
0.0
 40
0.0070868633525061
 50
99.7786942709586384
 51
121.8661479020170049
  0
LINE
  5
3D2F3
  8
0
 10
6784.8008131638189298
 20
332.0733903832722831
 30
0.0
 11
6784.8181366211692875
 21
332.0762379587562805
 31
0.0
  0
LINE
  5
3D2F4
  8
0
 10
6785.4455202392819047
 20
334.7824798630982741
 30
0.0
 11
6785.4455202392819047
 21
334.9886660312101867
 31
0.0
  0
LINE
  5
3D2F5
  8
0
 10
6785.4153756729219822
 20
334.7441823834400907
 30
0.0
 11
6785.0710309584546849
 21
334.6609638614439746
 31
0.0
  0
ARC
  5
3D2F6
  8
0
 10
6785.4061202392831547
 20
334.7824798630982741
 30
0.0
 40
0.0394
 50
283.5862871802127074
 51
0.0000000000065138
  0
ARC
  5
3D2F7
  8
0
 10
6785.0247772764532783
 20
334.8523540845151274
 30
0.0
 40
0.1969000268821654
 50
270.0035467168661967
 51
283.5862867150228794
  0
LINE
  5
3D2F8
  8
0
 10
6783.7745270669438469
 20
331.6914012131102254
 30
0.0
 11
6783.774528903092687
 21
334.6554540579102195
 31
0.0
  0
LINE
  5
3D2F9
  8
0
 10
6784.1236709940167202
 20
334.6554540579102195
 30
0.0
 11
6784.1236709940167202
 21
331.8292012131101956
 31
0.0
  0
ARC
  5
3D2FA
  8
0
 10
6783.9858709940172048
 20
331.8292012131101956
 30
0.0
 40
0.1378
 50
270.0
 51
0.0
  0
LINE
  5
3D2FB
  8
0
 10
6783.9086180350341237
 20
331.6914012131102254
 30
0.0
 11
6783.9086180350341237
 21
334.6554540579102195
 31
0.0
  0
ARC
  5
3D2FC
  8
0
 10
6783.9859040223172997
 20
331.8291910701101983
 30
0.0
 40
0.2771
 50
270.0
 51
0.0
  0
LINE
  5
3D2FD
  8
0
 10
6784.2630040223166361
 20
334.6554540579102195
 30
0.0
 11
6784.2630040223166361
 21
331.8291910701101983
 31
0.0
  0
LINE
  5
3D2FE
  8
0
 10
6783.9858709940172048
 20
331.6914012131102254
 30
0.0
 11
6766.6551694845484235
 21
331.6914012131102254
 31
0.0
  0
LINE
  5
3D2FF
  8
0
 10
6783.8125750856770537
 20
330.9945509399100843
 30
0.0
 11
6766.9086583841390166
 21
330.9945509399100843
 31
0.0
  0
LINE
  5
3D300
  8
0
 10
6783.9859040223172997
 20
331.5520910701101798
 30
0.0
 11
6766.6551364562483286
 21
331.5520910701101798
 31
0.0
  0
LINE
  5
3D301
  8
0
 10
6767.4455202392837236
 20
334.9886660312101867
 30
0.0
 11
6765.1955202392828141
 21
334.9886660312101867
 31
0.0
  0
LINE
  5
3D302
  8
0
 10
6767.0247772812126641
 20
334.6554540580100934
 30
0.0
 11
6765.616251013629153
 21
334.6554540580100934
 31
0.0
  0
LINE
  5
3D303
  8
0
 10
6767.4455202392837236
 20
334.7824798630982741
 30
0.0
 11
6767.4455202392837236
 21
334.9886660312101867
 31
0.0
  0
LINE
  5
3D304
  8
0
 10
6767.4153756729210727
 20
334.7441823834400907
 30
0.0
 11
6767.0710309584555944
 21
334.6609638614439746
 31
0.0
  0
ARC
  5
3D305
  8
0
 10
6767.4061202392831547
 20
334.7824798630982741
 30
0.0
 40
0.0394
 50
283.5862871802127074
 51
0.0000000000065138
  0
ARC
  5
3D306
  8
0
 10
6767.0247772812126641
 20
334.8523540580101781
 30
0.0
 40
0.1969
 50
270.0
 51
283.5862871802643213
  0
LINE
  5
3D307
  8
0
 10
6767.4153756729210727
 20
334.7441823834400907
 30
0.0
 11
6765.2256648056445556
 21
334.7441823834400907
 31
0.0
  0
LINE
  5
3D308
  8
0
 10
6766.3205202392828141
 20
330.9945508194102217
 30
0.0
 11
6766.8283964894380915
 21
330.9945508194102217
 31
0.0
  0
ARC
  5
3D309
  8
0
 10
6766.8283964894380915
 20
331.014250819410222
 30
0.0
 40
0.0197
 50
270.0
 51
319.9958120870036851
  0
LINE
  5
3D30A
  8
0
 10
6765.8205202392837236
 20
332.0025842963439118
 30
0.0
 11
6765.8205202392837236
 21
331.4945508194102217
 31
0.0
  0
LINE
  5
3D30B
  8
0
 10
6765.8205202392837236
 20
332.0827911392220813
 30
0.0
 11
6765.8205202392837236
 21
334.6554540579102195
 31
0.0
  0
ARC
  5
3D30C
  8
0
 10
6765.830720239283437
 20
332.0827911392220813
 30
0.0
 40
0.0102
 50
180.0
 51
219.9761495183078921
  0
LINE
  5
3D30D
  8
0
 10
6765.8275618414209021
 20
332.0176791618142147
 30
0.0
 11
6765.8590874204928696
 21
332.0441161859470753
 31
0.0
  0
LINE
  5
3D30E
  8
0
 10
6765.8543600029670415
 20
332.0566177576067162
 30
0.0
 11
6765.8404083995555993
 21
332.0590778018022888
 31
0.0
  0
ARC
  5
3D30F
  8
0
 10
6765.8421796110305877
 20
332.0691228408720121
 30
0.0
 40
0.0102
 50
219.9761495183078921
 51
259.9999996421893798
  0
LINE
  5
3D310
  8
0
 10
6765.8343632291453105
 20
332.0625696604062114
 30
0.0
 11
6765.8229038573972502
 21
332.0762379587562805
 31
0.0
  0
ARC
  5
3D311
  8
0
 10
6765.8402202392826439
 20
332.0025842963439118
 30
0.0
 40
0.0197
 50
129.9828486298505936
 51
180.0000000000129887
  0
ARC
  5
3D312
  8
0
 10
6765.7616711292494074
 20
332.0144232319798903
 30
0.0
 40
0.1018410786686281
 50
16.951473467417479
 51
25.8512056061297884
  0
ARC
  5
3D313
  8
0
 10
6766.3205202392828141
 20
331.4945508194102217
 30
0.0
 40
0.5
 50
180.0
 51
270.0
  0
LINE
  5
3D314
  8
0
 10
6766.8692302433773875
 20
331.033411909286599
 30
0.0
 11
6766.843486639359071
 21
331.0015868004830963
 31
0.0
  0
LINE
  5
3D315
  8
0
 10
6766.8830071308866536
 20
331.0284101301223245
 30
0.0
 11
6766.8850673942843059
 21
331.0143486084101028
 31
0.0
  0
LINE
  5
3D316
  8
0
 10
6766.888433451083074
 20
331.008516271210226
 30
0.0
 11
6766.9023325161833782
 21
330.9968529764101959
 31
0.0
  0
ARC
  5
3D317
  8
0
 10
6766.8946224329711185
 20
331.015975667139287
 30
0.0
 40
0.0096925788331651
 50
189.6637926309172997
 51
230.3178648285924055
  0
ARC
  5
3D318
  8
0
 10
6766.9090531844058205
 20
331.0054784135115256
 30
0.0
 40
0.0109346031733136
 50
232.0754042115291043
 51
267.930852514404819
  0
ARC
  5
3D319
  8
0
 10
6765.7025453091528107
 20
331.9957307175371284
 30
0.0
 40
0.1638492787856195
 50
4.4198877954788927
 51
17.1758117012374996
  0
ARC
  5
3D31A
  8
0
 10
6765.6491534718015828
 20
331.9916037966202111
 30
0.0
 40
0.2174003737516163
 50
359.1929883416891016
 51
4.4198877954788927
  0
LINE
  5
3D31B
  8
0
 10
6765.8665322811475562
 20
331.9885418113101991
 30
0.0
 11
6765.8665322582401132
 21
331.4945508194102217
 31
0.0
  0
LINE
  5
3D31C
  8
0
 10
6766.8159691036498771
 20
331.0405875736101962
 30
0.0
 11
6766.3206080842492156
 21
331.0405889571101739
 31
0.0
  0
ARC
  5
3D31D
  8
0
 10
6766.3209050292516622
 20
331.4949618169716246
 30
0.0
 40
0.4543729568921758
 50
180.0518262112900914
 51
269.9625556575281848
  0
ARC
  5
3D31E
  8
0
 10
6766.8086992810822267
 20
330.7476240213833876
 30
0.0
 40
0.293053531829266
 50
80.7674656232329937
 51
88.5785333651130173
  0
ARC
  5
3D31F
  8
0
 10
6766.8265157042096689
 20
330.894613132497625
 30
0.0
 40
0.1452340106912886
 50
67.1096805762006312
 51
78.4007137756823624
  0
ARC
  5
3D320
  8
0
 10
6766.8849113369769839
 20
331.009263511342624
 30
0.0
 40
0.0156899547609775
 50
18.6516342800501889
 51
54.9398616259399901
  0
ARC
  5
3D321
  8
0
 10
6766.8528530368148495
 20
330.9635816399260193
 30
0.0
 40
0.0714982694229716
 50
54.9398616259399901
 51
65.0551443791016624
  0
LINE
  5
3D322
  8
0
 10
6766.8997772644588622
 20
331.0142813675101934
 30
0.0
 11
6766.9023325161833782
 21
330.9968529764101959
 31
0.0
  0
ARC
  5
3D323
  8
0
 10
6765.8263166895658287
 20
331.9897039219811177
 30
0.0
 40
0.0154121290445904
 50
354.5517685402052166
 51
40.5986100377190624
  0
ARC
  5
3D324
  8
0
 10
6765.8580696113831436
 20
331.9997135359780032
 30
0.0
 40
0.0200507010278804
 50
131.2777920394350986
 51
179.9430824610469983
  0
LINE
  5
3D325
  8
0
 10
6765.8448419548485617
 20
332.0147820367101872
 30
0.0
 11
6765.8627302386839801
 21
332.0302539828077784
 31
0.0
  0
LINE
  5
3D326
  8
0
 10
6765.8416591926488763
 20
331.9882405967102272
 30
0.0
 11
6765.8416821660475762
 21
331.4945543777101875
 31
0.0
  0
ARC
  5
3D327
  8
0
 10
6766.3204887344782037
 20
331.4945294470541057
 30
0.0
 40
0.4788171331046618
 50
179.9970166987353082
 51
270.0009125560451935
  0
LINE
  5
3D328
  8
0
 10
6766.3204963606476667
 20
331.0157123140101021
 30
0.0
 11
6766.8142538919482831
 21
331.0157128135102198
 31
0.0
  0
LINE
  5
3D329
  8
0
 10
6766.8285938890358011
 20
330.9945518084350056
 30
0.0
 11
6766.825679507548557
 21
331.012028658810209
 31
0.0
  0
ARC
  5
3D32A
  8
0
 10
6766.8157054041357696
 20
331.0005657807009243
 30
0.0
 40
0.0152164217395304
 50
48.8803800846313194
 51
95.4738341250054958
  0
ARC
  5
3D32B
  8
0
 10
6765.8124646294327249
 20
332.0399593522250257
 30
0.0
 40
0.0450035649186934
 50
24.7907034386137113
 51
39.1560443678069774
  0
ARC
  5
3D32C
  8
0
 10
6765.8329782327100475
 20
332.056681295596718
 30
0.0
 40
0.0185379106673158
 50
39.1137533404741333
 51
58.1338520979863986
  0
ARC
  5
3D32D
  8
0
 10
6765.8390236601999277
 20
332.0664064840813126
 30
0.0
 40
0.0070868633525061
 50
58.1338520979829667
 51
80.2213057290413758
  0
LINE
  5
3D32E
  8
0
 10
6765.8402273147466985
 20
332.0733903832722831
 30
0.0
 11
6765.8229038573972502
 21
332.0762379587562805
 31
0.0
  0
LINE
  5
3D32F
  8
0
 10
6765.1955202392828141
 20
334.7824798630982741
 30
0.0
 11
6765.1955202392828141
 21
334.9886660312101867
 31
0.0
  0
LINE
  5
3D330
  8
0
 10
6765.2256648056445556
 20
334.7441823834400907
 30
0.0
 11
6765.5700095201109434
 21
334.6609638614439746
 31
0.0
  0
ARC
  5
3D331
  8
0
 10
6765.2349202392842926
 20
334.7824798630982741
 30
0.0
 40
0.0394
 50
179.9999999999934914
 51
256.4137128197871789
  0
ARC
  5
3D332
  8
0
 10
6765.6162632021132595
 20
334.8523540845035882
 30
0.0
 40
0.1969000268706708
 50
256.4137132838388879
 51
269.9964532825314905
  0
LINE
  5
3D333
  8
0
 10
6766.8665134116217814
 20
331.6914012131102254
 30
0.0
 11
6766.8665115754729413
 21
334.6554540579102195
 31
0.0
  0
LINE
  5
3D334
  8
0
 10
6766.5173694845489081
 20
334.6554540579102195
 30
0.0
 11
6766.5173694845489081
 21
331.8292012131101956
 31
0.0
  0
ARC
  5
3D335
  8
0
 10
6766.6551694845484235
 20
331.8292012131101956
 30
0.0
 40
0.1378
 50
180.0
 51
270.0
  0
LINE
  5
3D336
  8
0
 10
6766.732422443530595
 20
331.6914012131102254
 30
0.0
 11
6766.732422443530595
 21
334.6554540579102195
 31
0.0
  0
ARC
  5
3D337
  8
0
 10
6766.6551364562483286
 20
331.8291910701101983
 30
0.0
 40
0.2771
 50
180.0
 51
270.0
  0
LINE
  5
3D338
  8
0
 10
6766.3780364562489922
 20
334.6554540579102195
 30
0.0
 11
6766.3780364562489922
 21
331.8291910701101983
 31
0.0
  0
LINE
  5
3D339
  8
0
 10
6766.8284653928885746
 20
330.9945509399100843
 30
0.0
 11
6766.8285424522800895
 21
330.9945509399100843
 31
0.0
  0
ENDSEC
  0
EOF
