  0
SECTION
  2
HEADER
  9
$ACADVER
  1
AC1009
  9
$INSBASE
 10
6638.8299781489085944
 20
276.2335508475114807
 30
0.0
  9
$EXTMIN
 10
6634.8359073048386563
 20
275.1085508597114995
 30
0.0
  9
$EXTMAX
 10
6638.8424996360272416
 20
277.3585508353115188
 30
0.0
  9
$LIMMIN
 10
0.0
 20
0.0
  9
$LIMMAX
 10
11.6929133858000007
 20
8.2677165353999982
  9
$ORTHOMODE
 70
     0
  9
$REGENMODE
 70
     1
  9
$FILLMODE
 70
     1
  9
$QTEXTMODE
 70
     0
  9
$MIRRTEXT
 70
     0
  9
$DRAGMODE
 70
     2
  9
$LTSCALE
 40
0.6431102362
  9
$OSMODE
 70
  4095
  9
$ATTMODE
 70
     1
  9
$TEXTSIZE
 40
0.2
  9
$TRACEWID
 40
0.05
  9
$TEXTSTYLE
  7
STANDARD
  9
$CLAYER
  8
0
  9
$CELTYPE
  6
BYLAYER
  9
$CECOLOR
 62
   256
  9
$DIMSCALE
 40
1.0
  9
$DIMASZ
 40
0.1875
  9
$DIMEXO
 40
0.0625
  9
$DIMDLI
 40
0.4443307087
  9
$DIMRND
 40
0.0
  9
$DIMDLE
 40
0.0
  9
$DIMEXE
 40
0.125
  9
$DIMTP
 40
0.01
  9
$DIMTM
 40
0.01
  9
$DIMTXT
 40
2.0
  9
$DIMCEN
 40
0.1052362205
  9
$DIMTSZ
 40
0.0
  9
$DIMTOL
 70
     1
  9
$DIMLIM
 70
     0
  9
$DIMTIH
 70
     1
  9
$DIMTOH
 70
     1
  9
$DIMSE1
 70
     0
  9
$DIMSE2
 70
     0
  9
$DIMTAD
 70
     0
  9
$DIMZIN
 70
     0
  9
$DIMBLK
  1

  9
$DIMASO
 70
     1
  9
$DIMSHO
 70
     1
  9
$DIMPOST
  1
\X
  9
$DIMAPOST
  1

  9
$DIMALT
 70
     1
  9
$DIMALTD
 70
     2
  9
$DIMALTF
 40
25.3999999999999986
  9
$DIMLFAC
 40
1.0
  9
$DIMTOFL
 70
     0
  9
$DIMTVP
 40
0.0
  9
$DIMTIX
 70
     0
  9
$DIMSOXD
 70
     0
  9
$DIMSAH
 70
     0
  9
$DIMBLK1
  1

  9
$DIMBLK2
  1

  9
$DIMSTYLE
  2
STANDARD
  9
$DIMCLRD
 70
     0
  9
$DIMCLRE
 70
     0
  9
$DIMCLRT
 70
     0
  9
$DIMTFAC
 40
1.0
  9
$DIMGAP
 40
0.09
  9
$LUNITS
 70
     2
  9
$LUPREC
 70
     4
  9
$SKETCHINC
 40
0.1
  9
$FILLETRAD
 40
0.0
  9
$AUNITS
 70
     0
  9
$AUPREC
 70
     0
  9
$MENU
  1
.
  9
$ELEVATION
 40
0.0
  9
$PELEVATION
 40
0.0
  9
$THICKNESS
 40
0.0
  9
$LIMCHECK
 70
     0
  9
$BLIPMODE
 70
     0
  9
$CHAMFERA
 40
0.0
  9
$CHAMFERB
 40
0.0
  9
$SKPOLY
 70
     0
  9
$TDCREATE
 40
2458060.468368056230247
  9
$TDUPDATE
 40
2460327.7205092590302229
  9
$TDINDWG
 40
0.974671412
  9
$TDUSRTIMER
 40
0.974671412
  9
$USRTIMER
 70
     1
  9
$ANGBASE
 50
0.0
  9
$ANGDIR
 70
     0
  9
$PDMODE
 70
     0
  9
$PDSIZE
 40
0.3125
  9
$PLINEWID
 40
0.0
  9
$COORDS
 70
     1
  9
$SPLFRAME
 70
     0
  9
$SPLINETYPE
 70
     6
  9
$SPLINESEGS
 70
     8
  9
$ATTDIA
 70
     1
  9
$ATTREQ
 70
     1
  9
$HANDLING
 70
     1
  9
$HANDSEED
  5
30EB4
  9
$SURFTAB1
 70
     6
  9
$SURFTAB2
 70
     6
  9
$SURFTYPE
 70
     6
  9
$SURFU
 70
     6
  9
$SURFV
 70
     6
  9
$UCSNAME
  2

  9
$UCSORG
 10
0.0
 20
0.0
 30
0.0
  9
$UCSXDIR
 10
1.0
 20
0.0
 30
0.0
  9
$UCSYDIR
 10
0.0
 20
1.0
 30
0.0
  9
$PUCSNAME
  2

  9
$PUCSORG
 10
0.0
 20
0.0
 30
0.0
  9
$PUCSXDIR
 10
1.0
 20
0.0
 30
0.0
  9
$PUCSYDIR
 10
0.0
 20
1.0
 30
0.0
  9
$USERI1
 70
     0
  9
$USERI2
 70
     0
  9
$USERI3
 70
     0
  9
$USERI4
 70
     0
  9
$USERI5
 70
     0
  9
$USERR1
 40
0.0
  9
$USERR2
 40
0.0
  9
$USERR3
 40
0.0
  9
$USERR4
 40
0.0
  9
$USERR5
 40
0.0
  9
$WORLDVIEW
 70
     1
  9
$SHADEDGE
 70
     3
  9
$SHADEDIF
 70
    70
  9
$TILEMODE
 70
     1
  9
$MAXACTVP
 70
    64
  9
$PLIMCHECK
 70
     0
  9
$PEXTMIN
 10
1.0000000000000000E+20
 20
1.0000000000000000E+20
 30
1.0000000000000000E+20
  9
$PEXTMAX
 10
-1.0000000000000000E+20
 20
-1.0000000000000000E+20
 30
-1.0000000000000000E+20
  9
$PLIMMIN
 10
0.0
 20
0.0
  9
$PLIMMAX
 10
12.0
 20
9.0
  9
$UNITMODE
 70
     0
  9
$VISRETAIN
 70
     1
  9
$PLINEGEN
 70
     0
  9
$PSLTSCALE
 70
     1
  0
ENDSEC
  0
SECTION
  2
TABLES
  0
TABLE
  2
VPORT
 70
     1
  0
VPORT
  2
*ACTIVE
 70
     0
 10
0.0
 20
0.0
 11
1.0
 21
1.0
 12
2725.4738470251209037
 22
143.6539457449723898
 13
0.0
 23
0.0
 14
1.0
 24
1.0
 15
0.0
 25
0.0
 16
0.0
 26
0.0
 36
60.4960186965801583
 17
3911.3653564453120453
 27
132.5796051025390057
 37
0.0
 40
2.270361966329403
 41
2.8610271903323259
 42
50.0
 43
0.0
 44
0.0
 50
0.0
 51
0.0
 71
     0
 72
   100
 73
     1
 74
     1
 75
     0
 76
     0
 77
     0
 78
     0
  0
ENDTAB
  0
TABLE
  2
LTYPE
 70
     2
  0
LTYPE
  2
CONTINUOUS
 70
     0
  3
Solid line
 72
    65
 73
     0
 40
0.0
  0
LTYPE
  2
PHANTOM2
 70
     0
  3
___ _ _ ___ _ _ ___ _ _ ___ _ _
 72
    65
 73
     6
 40
1.25
 49
0.625
 49
-0.125
 49
0.125
 49
-0.125
 49
0.125
 49
-0.125
  0
ENDTAB
  0
TABLE
  2
LAYER
 70
     2
  0
LAYER
  2
0
 70
     0
 62
   255
  6
CONTINUOUS
  0
LAYER
  2
DEFPOINTS
 70
     0
 62
     7
  6
CONTINUOUS
  0
ENDTAB
  0
TABLE
  2
STYLE
 70
     1
  0
STYLE
  2
STANDARD
 70
     0
 40
0.0
 41
0.8
 50
0.0
 71
     0
 42
0.2
  3
txt
  4

  0
ENDTAB
  0
TABLE
  2
VIEW
 70
     0
  0
ENDTAB
  0
TABLE
  2
UCS
 70
     0
  0
ENDTAB
  0
TABLE
  2
APPID
 70
    11
  0
APPID
  2
ACAD
 70
     0
  0
APPID
  2
ACAD_MLEADERVER
 70
     0
  0
APPID
  2
ACAD_EXEMPT_FROM_CAD_STANDARDS
 70
     0
  0
APPID
  2
ACAD_NAV_VCDISPLAY
 70
     0
  0
APPID
  2
ACAECLAYERSTANDARD
 70
     0
  0
APPID
  2
ACCMTRANSPARENCY
 70
     0
  0
APPID
  2
ACAD_DSTYLE_DIMJAG
 70
     0
  0
APPID
  2
ACAD_DSTYLE_DIMTALN
 70
     0
  0
APPID
  2
ACDBATTR
 70
     0
  0
APPID
  2
ACADANNOTATIVE
 70
     0
  0
APPID
  2
DCO15
 70
     0
  0
ENDTAB
  0
TABLE
  2
DIMSTYLE
 70
     1
  0
DIMSTYLE
  2
STANDARD
 70
     0
  3

  4

  5

  6

  7

 40
1.0
 41
0.1875
 42
0.0625
 43
0.38
 44
0.125
 45
0.0
 46
0.0
 47
0.01
 48
0.01
140
0.15625
141
0.09
142
0.0
143
25.3999999999999986
144
1.0
145
0.0
146
1.0
147
0.09
 71
     1
 72
     0
 73
     1
 74
     1
 75
     0
 76
     0
 77
     0
 78
     4
170
     0
171
     2
172
     0
173
     0
174
     0
175
     0
176
     0
177
     0
178
     0
  0
ENDTAB
  0
ENDSEC
  0
SECTION
  2
BLOCKS
  0
BLOCK
  8
0
  2
$MODEL_SPACE
 70
     0
 10
0.0
 20
0.0
 30
0.0
  3
$MODEL_SPACE
  1

  0
ENDBLK
  5
21
  8
0
  0
BLOCK
 67
     1
  8
0
  2
$PAPER_SPACE
 70
     0
 10
0.0
 20
0.0
 30
0.0
  3
$PAPER_SPACE
  1

  0
ENDBLK
  5
1D
 67
     1
  8
0
  0
BLOCK
  8
0
  2
_FILLED
 70
     0
 10
0.0
 20
0.0
 30
0.0
  3
_FILLED
  1

  0
SOLID
  5
26C2A
  8
0
  6
BYBLOCK
 62
     0
 10
0.0
 20
0.0
 30
0.0
 11
-1.0
 21
0.1666666667
 31
0.0
 12
-1.0
 22
-0.1666666667
 32
0.0
 13
-1.0
 23
-0.1666666667
 33
0.0
  0
ENDBLK
  5
26C2B
  8
0
  6
BYBLOCK
 62
     0
  0
ENDSEC
  0
SECTION
  2
ENTITIES
  0
ATTDEF
  5
26A5B
  8
DEFPOINTS
 10
6638.8318329693584019
 20
276.2378917187510865
 30
0.0
 40
0.001
  1
P34595-BN
  3

  2
MODELNUMBER
 70
     0
1001
ACDBATTR
1070
     0
1070
     1
  0
ATTDEF
  5
26A5C
  8
DEFPOINTS
 10
6638.8317071597020913
 20
276.2362248783720133
 30
0.0
 40
0.001
  1
VICE
  3

  2
TRADENAME
 70
     0
1001
ACDBATTR
1070
     0
1070
     1
  0
ATTDEF
  5
26A5D
  8
DEFPOINTS
 10
6638.8318329693584019
 20
276.234558385417813
 30
0.0
 40
0.001
  1
TOWEL BAR
  3

  2
PRODUCT
 70
     0
1001
ACDBATTR
1070
     0
1070
     1
  0
LINE
  5
30D2B
  8
0
 10
6638.4967661757100359
 20
276.9377959773007092
 30
0.0
 11
6638.4967661757100359
 21
275.5293057177223091
 31
0.0
  0
LINE
  5
30D2C
  8
0
 10
6638.5854945011396921
 20
277.3284062811495119
 30
0.0
 11
6638.5022787774187236
 21
276.9840731454905836
 31
0.0
  0
LINE
  5
30D2D
  8
0
 10
6638.8299781489085944
 20
277.3585508353115188
 30
0.0
 11
6638.8299781489085944
 21
275.1085508597114995
 31
0.0
  0
ARC
  5
30D2E
  8
0
 10
6638.6937661757101523
 20
276.9377959773007092
 30
0.0
 40
0.197
 50
166.4137128197529876
 51
180.0000000000032117
  0
LINE
  5
30D2F
  8
0
 10
6636.2177528214097038
 20
276.7025508352814995
 30
0.0
 11
6636.2177528214097038
 21
275.7645508353414812
 31
0.0
  0
LINE
  5
30D30
  8
0
 10
6638.5854945011396921
 20
275.1386954138735064
 30
0.0
 11
6638.5022787774187236
 21
275.4830285495323778
 31
0.0
  0
ARC
  5
30D31
  8
0
 10
6638.6937661757101523
 20
275.5293057177223091
 30
0.0
 40
0.197
 50
179.9999999999967031
 51
193.5862871802468987
  0
LINE
  5
30D32
  8
0
 10
6635.8399933879545642
 20
276.4122766115785907
 30
0.0
 11
6634.9010469573313458
 21
276.4122766115785907
 31
0.0
  0
ARC
  5
30D33
  8
0
 10
6629.3953880326143917
 20
276.1438786363445956
 30
0.0
 40
6.505549738783265
 50
0.7897875130835598
 51
1.8813444962374659
  0
ARC
  5
30D34
  8
0
 10
6635.8399933879545642
 20
276.3547766115785862
 30
0.0
 40
0.0575
 50
2.6690884860369319
 51
90.0
  0
LINE
  5
30D35
  8
0
 10
6634.8930831934912931
 20
276.4170839435150242
 30
0.0
 11
6634.8830475674531044
 21
276.4361461145588805
 31
0.0
  0
ARC
  5
30D36
  8
0
 10
6634.9010469573313458
 20
276.4212766115786053
 30
0.0
 40
0.009
 50
207.7653764283992928
 51
270.0
  0
LINE
  5
30D37
  8
0
 10
6634.9008195394026188
 20
276.4079440052047971
 30
0.0
 11
6635.8321031141240383
 21
276.4079440052047971
 31
0.0
  0
LINE
  5
30D38
  8
0
 10
6634.865896230713588
 20
276.3888755797020167
 30
0.0
 11
6634.8946170340777826
 21
276.4062167325778887
 31
0.0
  0
ARC
  5
30D39
  8
0
 10
6634.9008195394026188
 20
276.3959440052047967
 30
0.0
 40
0.012
 50
90.0
 51
121.1228948500357063
  0
ARC
  5
30D3A
  8
0
 10
6631.3591065333839651
 20
276.1890908833378262
 30
0.0
 40
4.5321488904347591
 50
0.5620753477397407
 51
2.0560956343226731
  0
ARC
  5
30D3B
  8
0
 10
6635.8293988439336317
 20
276.3490060130203005
 30
0.0
 40
0.059
 50
2.612254577457092
 51
87.3729225065030448
  0
ARC
  5
30D3C
  8
0
 10
6634.9785602938663942
 20
276.3539331406573751
 30
0.0
 40
0.1062749198551117
 50
143.5428719535970004
 51
155.084087059690404
  0
LINE
  5
30D3D
  8
0
 10
6634.8829730588004168
 20
276.4362890660810876
 30
0.0
 11
6635.8367922621046091
 21
276.4362890660810876
 31
0.0
  0
ARC
  5
30D3E
  8
0
 10
6626.1314488582947888
 20
276.0787008819373227
 30
0.0
 40
9.7873598666800863
 50
0.9065386165605064
 51
1.6573832315785439
  0
ARC
  5
30D3F
  8
0
 10
6635.8367922621046091
 20
276.3582890660811131
 30
0.0
 40
0.078
 50
2.563945761270122
 51
90.0
  0
LINE
  5
30D40
  8
0
 10
6634.8657237423403785
 20
276.3887708269284076
 30
0.0
 11
6635.8294124862077297
 21
276.3887708269284076
 31
0.0
  0
ARC
  5
30D41
  8
0
 10
6633.6675197450158521
 20
276.2550374520776018
 30
0.0
 40
2.1911456300163521
 50
359.4381425534069763
 51
2.8369922470131601
  0
ARC
  5
30D42
  8
0
 10
6635.8294124862077297
 20
276.3621708269283772
 30
0.0
 40
0.0266
 50
2.8369922470164139
 51
90.0
  0
LINE
  5
30D43
  8
0
 10
6638.6237919778486685
 20
277.3585508353115188
 30
0.0
 11
6638.8299781489085944
 21
277.3585508353115188
 31
0.0
  0
LINE
  5
30D44
  8
0
 10
6638.6237919778486685
 20
275.1085508597114995
 30
0.0
 11
6638.8299781489085944
 21
275.1085508597114995
 31
0.0
  0
ARC
  5
30D45
  8
0
 10
6638.6237919778486685
 20
277.3191508353115182
 30
0.0
 40
0.0394
 50
90.0
 51
166.4137128197467064
  0
ARC
  5
30D46
  8
0
 10
6638.6237919778486685
 20
275.1479508597116137
 30
0.0
 40
0.0394
 50
193.5862871802532936
 51
270.0
  0
LINE
  5
30D47
  8
0
 10
6638.5854944981911103
 20
275.1386954260735251
 30
0.0
 11
6638.5854944981911103
 21
277.3284062689494931
 31
0.0
  0
ARC
  5
30D48
  8
0
 10
6636.1867528214097547
 20
275.7645508353414812
 30
0.0
 40
0.031
 50
270.0
 51
359.9999999999805027
  0
ARC
  5
30D49
  8
0
 10
6636.1867528214097547
 20
276.7025508352814995
 30
0.0
 40
0.031
 50
359.9999999999772058
 51
90.0
  0
LINE
  5
30D4A
  8
0
 10
6635.3359072926095905
 20
276.7335508352815054
 30
0.0
 11
6638.4967661757100359
 21
276.7335508352815054
 31
0.0
  0
LINE
  5
30D4B
  8
0
 10
6635.3359072926095905
 20
275.7335508597415128
 30
0.0
 11
6638.4967661757100359
 21
275.7335508597415128
 31
0.0
  0
ARC
  5
30D4C
  8
0
 10
6635.3359072926095905
 20
276.2335508475114807
 30
0.0
 40
0.4999999877700026
 50
90.0
 51
270.0
  0
ARC
  5
30D4D
  8
0
 10
6634.8762337395892246
 20
276.3717543674134731
 30
0.0
 40
0.02
 50
121.1228948500238971
 51
163.2662898973680967
  0
ARC
  5
30D4E
  8
0
 10
6634.8918961939425571
 20
276.4408046346296146
 30
0.0
 40
0.01
 50
154.9779560387507047
 51
207.7653764284308977
  0
LINE
  5
30D4F
  8
0
 10
6635.8399933879545642
 20
276.0548250834444275
 30
0.0
 11
6634.9010469573313458
 21
276.0548250834444275
 31
0.0
  0
ARC
  5
30D50
  8
0
 10
6629.3953880326143917
 20
276.3232230586784226
 30
0.0
 40
6.505549738783265
 50
358.1186555037625112
 51
359.2102124869164186
  0
ARC
  5
30D51
  8
0
 10
6635.8399933879545642
 20
276.1123250834443752
 30
0.0
 40
0.0575
 50
270.0
 51
357.3309115139629739
  0
LINE
  5
30D52
  8
0
 10
6634.8930831934912931
 20
276.050017751507994
 30
0.0
 11
6634.8830475674531044
 21
276.0309555804640809
 31
0.0
  0
ARC
  5
30D53
  8
0
 10
6634.9010469573313458
 20
276.0458250834444129
 30
0.0
 40
0.009
 50
90.0
 51
152.2346235716007072
  0
LINE
  5
30D54
  8
0
 10
6634.9008195394026188
 20
276.0591576898182211
 30
0.0
 11
6635.8321031141240383
 21
276.0591576898182211
 31
0.0
  0
LINE
  5
30D55
  8
0
 10
6634.865896230713588
 20
276.0782261153210015
 30
0.0
 11
6634.8946170340777826
 21
276.0608849624450727
 31
0.0
  0
ARC
  5
30D56
  8
0
 10
6634.9008195394026188
 20
276.0711576898182216
 30
0.0
 40
0.012
 50
238.8771051499643931
 51
270.0
  0
ARC
  5
30D57
  8
0
 10
6631.3591065333839651
 20
276.2780108116853057
 30
0.0
 40
4.5321488904347591
 50
357.9439043656773265
 51
359.4379246522602216
  0
ARC
  5
30D58
  8
0
 10
6635.8293988439336317
 20
276.1180956820027745
 30
0.0
 40
0.059
 50
272.6270774934969836
 51
357.3877454225428778
  0
ARC
  5
30D59
  8
0
 10
6634.9785602938663942
 20
276.1131685543655863
 30
0.0
 40
0.1062749198551117
 50
204.915912940309596
 51
216.4571280464029996
  0
LINE
  5
30D5A
  8
0
 10
6634.8829730588004168
 20
276.0308126289419874
 30
0.0
 11
6635.8367922621046091
 21
276.0308126289419874
 31
0.0
  0
ARC
  5
30D5B
  8
0
 10
6626.1314488582947888
 20
276.3884008130858092
 30
0.0
 40
9.7873598666800863
 50
358.3426167684215216
 51
359.0934613834394895
  0
ARC
  5
30D5C
  8
0
 10
6635.8367922621046091
 20
276.1088126289419051
 30
0.0
 40
0.078
 50
270.0
 51
357.4360542387299233
  0
LINE
  5
30D5D
  8
0
 10
6634.8657237423403785
 20
276.0783308680947243
 30
0.0
 11
6635.8294124862077297
 21
276.0783308680947243
 31
0.0
  0
ARC
  5
30D5E
  8
0
 10
6633.6675197450158521
 20
276.2120642429454733
 30
0.0
 40
2.1911456300163521
 50
357.1630077529869141
 51
0.5618574465930219
  0
ARC
  5
30D5F
  8
0
 10
6635.8294124862077297
 20
276.1049308680946979
 30
0.0
 40
0.0266
 50
270.0
 51
357.1630077529836171
  0
ARC
  5
30D60
  8
0
 10
6634.8762337395892246
 20
276.0953473276094883
 30
0.0
 40
0.02
 50
196.7337101026286916
 51
238.8771051499761029
  0
ARC
  5
30D61
  8
0
 10
6634.8918961939425571
 20
276.0262970603934036
 30
0.0
 40
0.01
 50
152.2346235715689886
 51
205.0220439612492953
  0
ARC
  5
30D62
  8
0
 10
6638.0249031901130365
 20
275.4756939097126178
 30
0.0
 40
0.2801914398515328
 50
69.2397291403940045
 51
111.334179975904604
  0
ARC
  5
30D63
  8
0
 10
6638.1214002609140152
 20
275.7319531320574129
 30
0.0
 40
0.0063958170868467
 50
37.3575828194707924
 51
63.840636221398789
  0
ARC
  5
30D64
  8
0
 10
6638.1253198197473466
 20
275.7354162777044166
 30
0.0
 40
0.0012369276108583
 50
288.4549490115467165
 51
19.7390759751376983
  0
ARC
  5
30D65
  8
0
 10
6638.1186358262275462
 20
275.7594360307571719
 30
0.0
 40
0.0261678082763003
 50
278.4286950057335162
 51
285.6875670590575282
  0
ARC
  5
30D66
  8
0
 10
6639.1613576272802675
 20
271.3705319203497197
 30
0.0
 40
4.5383811051608456
 50
105.8351462289728033
 51
105.9031016614470957
  0
ARC
  5
30D67
  8
0
 10
6637.9304301827169184
 20
275.7783202059738983
 30
0.0
 40
0.0449220271651989
 50
253.6573920418506134
 51
265.2747646648953719
  0
ARC
  5
30D68
  8
0
 10
6638.3405756433676288
 20
270.0534506699858071
 30
0.0
 40
5.6985567939513597
 50
92.4611947008295374
 51
94.2025811325814146
  0
ARC
  5
30D69
  8
0
 10
6638.0730708975152083
 20
273.1907821526395992
 30
0.0
 40
2.5476293289167611
 50
91.8121927677734817
 51
93.3740914973131026
  0
ARC
  5
30D6A
  8
0
 10
6638.0377646097431352
 20
275.3070035704141105
 30
0.0
 40
0.4325082159574751
 50
87.6520713203608324
 51
96.0065456826101666
  0
ARC
  5
30D6B
  8
0
 10
6637.9939652889133868
 20
277.6474372304967915
 30
0.0
 40
1.909279879082354
 50
271.846424235181189
 51
273.5594201740116205
  0
ENDSEC
  0
EOF
