  0
SECTION
  2
HEADER
  9
$ACADVER
  1
AC1009
  9
$INSBASE
 10
6750.9066847004087322
 20
334.9427229286180818
 30
0.0
  9
$EXTMIN
 10
6748.0130009955291825
 20
331.6966364654967947
 30
0.0
  9
$EXTMAX
 10
6753.8003847265090371
 20
334.9480552855129076
 30
0.0
  9
$LIMMIN
 10
0.0
 20
0.0
  9
$LIMMAX
 10
11.6929133858000007
 20
8.2677165353999982
  9
$ORTHOMODE
 70
     0
  9
$REGENMODE
 70
     1
  9
$FILLMODE
 70
     1
  9
$QTEXTMODE
 70
     0
  9
$MIRRTEXT
 70
     0
  9
$DRAGMODE
 70
     2
  9
$LTSCALE
 40
0.6431102362
  9
$OSMODE
 70
  4095
  9
$ATTMODE
 70
     1
  9
$TEXTSIZE
 40
0.2
  9
$TRACEWID
 40
0.05
  9
$TEXTSTYLE
  7
STANDARD
  9
$CLAYER
  8
0
  9
$CELTYPE
  6
BYLAYER
  9
$CECOLOR
 62
   256
  9
$DIMSCALE
 40
1.0
  9
$DIMASZ
 40
0.1875
  9
$DIMEXO
 40
0.0625
  9
$DIMDLI
 40
0.4443307087
  9
$DIMRND
 40
0.0
  9
$DIMDLE
 40
0.0
  9
$DIMEXE
 40
0.125
  9
$DIMTP
 40
0.01
  9
$DIMTM
 40
0.01
  9
$DIMTXT
 40
2.0
  9
$DIMCEN
 40
0.1052362205
  9
$DIMTSZ
 40
0.0
  9
$DIMTOL
 70
     1
  9
$DIMLIM
 70
     0
  9
$DIMTIH
 70
     1
  9
$DIMTOH
 70
     1
  9
$DIMSE1
 70
     0
  9
$DIMSE2
 70
     0
  9
$DIMTAD
 70
     0
  9
$DIMZIN
 70
     0
  9
$DIMBLK
  1

  9
$DIMASO
 70
     1
  9
$DIMSHO
 70
     1
  9
$DIMPOST
  1
\X
  9
$DIMAPOST
  1

  9
$DIMALT
 70
     1
  9
$DIMALTD
 70
     2
  9
$DIMALTF
 40
25.3999999999999986
  9
$DIMLFAC
 40
1.0
  9
$DIMTOFL
 70
     0
  9
$DIMTVP
 40
0.0
  9
$DIMTIX
 70
     0
  9
$DIMSOXD
 70
     0
  9
$DIMSAH
 70
     0
  9
$DIMBLK1
  1

  9
$DIMBLK2
  1

  9
$DIMSTYLE
  2
STANDARD
  9
$DIMCLRD
 70
     0
  9
$DIMCLRE
 70
     0
  9
$DIMCLRT
 70
     0
  9
$DIMTFAC
 40
1.0
  9
$DIMGAP
 40
0.09
  9
$LUNITS
 70
     2
  9
$LUPREC
 70
     4
  9
$SKETCHINC
 40
0.1
  9
$FILLETRAD
 40
0.0
  9
$AUNITS
 70
     0
  9
$AUPREC
 70
     0
  9
$MENU
  1
.
  9
$ELEVATION
 40
0.0
  9
$PELEVATION
 40
0.0
  9
$THICKNESS
 40
0.0
  9
$LIMCHECK
 70
     0
  9
$BLIPMODE
 70
     0
  9
$CHAMFERA
 40
0.0
  9
$CHAMFERB
 40
0.0
  9
$SKPOLY
 70
     0
  9
$TDCREATE
 40
2458060.468368056230247
  9
$TDUPDATE
 40
2460326.726273147854954
  9
$TDINDWG
 40
0.9544978009
  9
$TDUSRTIMER
 40
0.9544978009
  9
$USRTIMER
 70
     1
  9
$ANGBASE
 50
0.0
  9
$ANGDIR
 70
     0
  9
$PDMODE
 70
     0
  9
$PDSIZE
 40
0.3125
  9
$PLINEWID
 40
0.0
  9
$COORDS
 70
     1
  9
$SPLFRAME
 70
     0
  9
$SPLINETYPE
 70
     6
  9
$SPLINESEGS
 70
     8
  9
$ATTDIA
 70
     1
  9
$ATTREQ
 70
     1
  9
$HANDLING
 70
     1
  9
$HANDSEED
  5
3D0CD
  9
$SURFTAB1
 70
     6
  9
$SURFTAB2
 70
     6
  9
$SURFTYPE
 70
     6
  9
$SURFU
 70
     6
  9
$SURFV
 70
     6
  9
$UCSNAME
  2

  9
$UCSORG
 10
0.0
 20
0.0
 30
0.0
  9
$UCSXDIR
 10
1.0
 20
0.0
 30
0.0
  9
$UCSYDIR
 10
0.0
 20
1.0
 30
0.0
  9
$PUCSNAME
  2

  9
$PUCSORG
 10
0.0
 20
0.0
 30
0.0
  9
$PUCSXDIR
 10
1.0
 20
0.0
 30
0.0
  9
$PUCSYDIR
 10
0.0
 20
1.0
 30
0.0
  9
$USERI1
 70
     0
  9
$USERI2
 70
     0
  9
$USERI3
 70
     0
  9
$USERI4
 70
     0
  9
$USERI5
 70
     0
  9
$USERR1
 40
0.0
  9
$USERR2
 40
0.0
  9
$USERR3
 40
0.0
  9
$USERR4
 40
0.0
  9
$USERR5
 40
0.0
  9
$WORLDVIEW
 70
     1
  9
$SHADEDGE
 70
     3
  9
$SHADEDIF
 70
    70
  9
$TILEMODE
 70
     1
  9
$MAXACTVP
 70
    64
  9
$PLIMCHECK
 70
     0
  9
$PEXTMIN
 10
1.0000000000000000E+20
 20
1.0000000000000000E+20
 30
1.0000000000000000E+20
  9
$PEXTMAX
 10
-1.0000000000000000E+20
 20
-1.0000000000000000E+20
 30
-1.0000000000000000E+20
  9
$PLIMMIN
 10
0.0
 20
0.0
  9
$PLIMMAX
 10
12.0
 20
9.0
  9
$UNITMODE
 70
     0
  9
$VISRETAIN
 70
     1
  9
$PLINEGEN
 70
     0
  9
$PSLTSCALE
 70
     1
  0
ENDSEC
  0
SECTION
  2
TABLES
  0
TABLE
  2
VPORT
 70
     1
  0
VPORT
  2
*ACTIVE
 70
     0
 10
0.0
 20
0.0
 11
1.0
 21
1.0
 12
2839.5413364157061551
 22
200.7427407729657887
 13
0.0
 23
0.0
 14
1.0
 24
1.0
 15
0.0
 25
0.0
 16
0.0
 26
0.0
 36
60.4960186965801583
 17
3911.3653564453120453
 27
132.5796051025390057
 37
0.0
 40
3.2740042296063878
 41
2.1211111111111101
 42
50.0
 43
0.0
 44
0.0
 50
0.0
 51
0.0
 71
     0
 72
   100
 73
     1
 74
     1
 75
     0
 76
     0
 77
     0
 78
     0
  0
ENDTAB
  0
TABLE
  2
LTYPE
 70
     2
  0
LTYPE
  2
CONTINUOUS
 70
     0
  3
Solid line
 72
    65
 73
     0
 40
0.0
  0
LTYPE
  2
PHANTOM2
 70
     0
  3
___ _ _ ___ _ _ ___ _ _ ___ _ _
 72
    65
 73
     6
 40
1.25
 49
0.625
 49
-0.125
 49
0.125
 49
-0.125
 49
0.125
 49
-0.125
  0
ENDTAB
  0
TABLE
  2
LAYER
 70
     2
  0
LAYER
  2
0
 70
     0
 62
   255
  6
CONTINUOUS
  0
LAYER
  2
DEFPOINTS
 70
     0
 62
     7
  6
CONTINUOUS
  0
ENDTAB
  0
TABLE
  2
STYLE
 70
     1
  0
STYLE
  2
STANDARD
 70
     0
 40
0.0
 41
0.8
 50
0.0
 71
     0
 42
0.2
  3
txt
  4

  0
ENDTAB
  0
TABLE
  2
VIEW
 70
     0
  0
ENDTAB
  0
TABLE
  2
UCS
 70
     0
  0
ENDTAB
  0
TABLE
  2
APPID
 70
    11
  0
APPID
  2
ACAD
 70
     0
  0
APPID
  2
ACAD_MLEADERVER
 70
     0
  0
APPID
  2
ACAD_EXEMPT_FROM_CAD_STANDARDS
 70
     0
  0
APPID
  2
ACAD_NAV_VCDISPLAY
 70
     0
  0
APPID
  2
ACAECLAYERSTANDARD
 70
     0
  0
APPID
  2
ACCMTRANSPARENCY
 70
     0
  0
APPID
  2
ACAD_DSTYLE_DIMJAG
 70
     0
  0
APPID
  2
ACAD_DSTYLE_DIMTALN
 70
     0
  0
APPID
  2
ACDBATTR
 70
     0
  0
APPID
  2
ACADANNOTATIVE
 70
     0
  0
APPID
  2
DCO15
 70
     0
  0
ENDTAB
  0
TABLE
  2
DIMSTYLE
 70
     1
  0
DIMSTYLE
  2
STANDARD
 70
     0
  3

  4

  5

  6

  7

 40
1.0
 41
0.1875
 42
0.0625
 43
0.38
 44
0.125
 45
0.0
 46
0.0
 47
0.01
 48
0.01
140
0.15625
141
0.09
142
0.0
143
25.3999999999999986
144
1.0
145
0.0
146
1.0
147
0.09
 71
     1
 72
     0
 73
     1
 74
     1
 75
     0
 76
     0
 77
     0
 78
     4
170
     0
171
     2
172
     0
173
     0
174
     0
175
     0
176
     0
177
     0
178
     0
  0
ENDTAB
  0
ENDSEC
  0
SECTION
  2
BLOCKS
  0
BLOCK
  8
0
  2
$MODEL_SPACE
 70
     0
 10
0.0
 20
0.0
 30
0.0
  3
$MODEL_SPACE
  1

  0
ENDBLK
  5
21
  8
0
  0
BLOCK
 67
     1
  8
0
  2
$PAPER_SPACE
 70
     0
 10
0.0
 20
0.0
 30
0.0
  3
$PAPER_SPACE
  1

  0
ENDBLK
  5
1D
 67
     1
  8
0
  0
ENDSEC
  0
SECTION
  2
ENTITIES
  0
ATTDEF
  5
3A071
  8
DEFPOINTS
 10
6750.9031654794007409
 20
334.9470552855128744
 30
0.0
 40
0.001
  1
P34596-BN
  3

  2
MODELNUMBER
 70
     0
1001
ACDBATTR
1070
     0
1070
     1
  0
ATTDEF
  5
3A072
  8
DEFPOINTS
 10
6750.9030396697444303
 20
334.9453884451338013
 30
0.0
 40
0.001
  1
VICE
  3

  2
TRADENAME
 70
     0
1001
ACDBATTR
1070
     0
1070
     1
  0
ATTDEF
  5
3A073
  8
DEFPOINTS
 10
6750.9031654794007409
 20
334.943721952179601
 30
0.0
 40
0.001
  1
TOWEL RING
  3

  2
PRODUCT
 70
     0
1001
ACDBATTR
1070
     0
1070
     1
  0
LINE
  5
3CFC8
  8
0
 10
6753.8003847265090371
 20
332.6040897271182075
 30
0.0
 11
6753.8003847265090371
 21
331.9860393334180912
 31
0.0
  0
LINE
  5
3CFC9
  8
0
 10
6751.4066847004087322
 20
332.1966364655867778
 30
0.0
 11
6751.4066847004087322
 21
334.6095109554181022
 31
0.0
  0
LINE
  5
3CFCA
  8
0
 10
6749.7816826316611696
 20
334.9427229286180818
 30
0.0
 11
6752.0316867691562948
 21
334.9427229286180818
 31
0.0
  0
LINE
  5
3CFCB
  8
0
 10
6750.2024297272273543
 20
334.6095109554181022
 30
0.0
 11
6751.6109559948099559
 21
334.6095109554181022
 31
0.0
  0
LINE
  5
3CFCC
  8
0
 10
6749.7816826316611696
 20
334.7365367605062261
 30
0.0
 11
6749.7816826316611696
 21
334.9427229286180818
 31
0.0
  0
LINE
  5
3CFCD
  8
0
 10
6749.8118313355189457
 20
334.6982392808479858
 30
0.0
 11
6750.156176049982605
 21
334.6150207588519834
 31
0.0
  0
ARC
  5
3CFCE
  8
0
 10
6749.8205248484564436
 20
334.7360986597483929
 30
0.0
 40
0.0388446873835021
 50
179.3537891976704941
 51
257.0675673006120974
  0
ARC
  5
3CFCF
  8
0
 10
6750.2024297272273543
 20
334.8064109554181869
 30
0.0
 40
0.1969
 50
256.4137128197356787
 51
270.0
  0
LINE
  5
3CFD0
  8
0
 10
6749.8118313355189457
 20
334.6982392808479858
 30
0.0
 11
6752.0015422027945533
 21
334.6982392808479858
 31
0.0
  0
LINE
  5
3CFD1
  8
0
 10
6752.0316867691562948
 20
334.7365367605062261
 30
0.0
 11
6752.0316867691562948
 21
334.9427229286180818
 31
0.0
  0
LINE
  5
3CFD2
  8
0
 10
6752.0015422027945533
 20
334.6982392808479858
 30
0.0
 11
6751.657197488329075
 21
334.6150207588519834
 31
0.0
  0
ARC
  5
3CFD3
  8
0
 10
6751.9922867691557258
 20
334.7365367605062261
 30
0.0
 40
0.0394
 50
283.5862871802127074
 51
0.0000000000065138
  0
ARC
  5
3CFD4
  8
0
 10
6751.6109438110870542
 20
334.8064109554181869
 30
0.0
 40
0.1969
 50
270.0
 51
283.5862871802643213
  0
LINE
  5
3CFD5
  8
0
 10
6753.7609847265075587
 20
332.6434897271182081
 30
0.0
 11
6751.4066847004087322
 21
332.6434897271182081
 31
0.0
  0
LINE
  5
3CFD6
  8
0
 10
6753.7609847265075587
 20
331.9466393334180907
 30
0.0
 11
6751.382926818821943
 21
331.9466393334180907
 31
0.0
  0
ARC
  5
3CFD7
  8
0
 10
6753.7609847265075587
 20
332.6040897271182075
 30
0.0
 40
0.0394
 50
0.0
 51
90.0
  0
ARC
  5
3CFD8
  8
0
 10
6753.7609847265075587
 20
331.9860393334180912
 30
0.0
 40
0.0394
 50
270.0
 51
0.0000000000065138
  0
LINE
  5
3CFD9
  8
0
 10
6750.7344577413941806
 20
331.7547409610066893
 30
0.0
 11
6750.7515936141726343
 21
331.7264722404814279
 31
0.0
  0
LINE
  5
3CFDA
  8
0
 10
6750.7323052005540376
 20
331.7619707706668919
 30
0.0
 11
6750.7322893937453046
 21
332.6903775350891124
 31
0.0
  0
ARC
  5
3CFDB
  8
0
 10
6750.7444599255359208
 20
331.7616782452303141
 30
0.0
 40
0.0121582445480572
 50
178.6213395929343051
 51
214.8901215109785028
  0
ARC
  5
3CFDC
  8
0
 10
6750.7182474547844322
 20
331.7625493968533874
 30
0.0
 40
0.0098651507316688
 50
297.832947888152205
 51
349.9527140537934997
  0
LINE
  5
3CFDD
  8
0
 10
6750.7228534467094505
 20
331.7538255194274939
 30
0.0
 11
6750.7038814479092252
 21
331.7438372909156215
 31
0.0
  0
ARC
  5
3CFDE
  8
0
 10
6750.6992597807611673
 20
331.7526857463009264
 30
0.0
 40
0.0099827335901944
 50
246.7216191574368906
 51
297.5786701777618077
  0
ARC
  5
3CFDF
  8
0
 10
6750.787095779772244
 20
332.6941989082761211
 30
0.0
 40
0.0549394470522103
 50
90.9308284527366482
 51
183.9884909684089962
  0
ARC
  5
3CFE0
  8
0
 10
6750.9066808077623136
 20
330.1648618914397844
 30
0.0
 40
2.587075995502099
 50
89.999860646048262
 51
92.6691723790392246
  0
LINE
  5
3CFE1
  8
0
 10
6750.7515936141726343
 20
331.7264722404814279
 30
0.0
 11
6750.7515899130075923
 21
332.6906590118156259
 31
0.0
  0
ARC
  5
3CFE2
  8
0
 10
6750.9066863265088614
 20
329.8026029342134962
 30
0.0
 40
2.9171741698020042
 50
89.9999694954659475
 51
92.5471385915144964
  0
ARC
  5
3CFE3
  8
0
 10
6750.7782271967871566
 20
332.6902812853555247
 30
0.0
 40
0.0266399617943892
 50
92.5471515150559867
 51
179.1875792701264061
  0
ARC
  5
3CFE4
  8
0
 10
6750.7687108231011734
 20
331.7369212223679256
 30
0.0
 40
0.0200544275394248
 50
211.4014459301222075
 51
223.4965061394806867
  0
ARC
  5
3CFE5
  8
0
 10
6750.7686905947930427
 20
331.7369854499397093
 30
0.0
 40
0.0200840532664318
 50
223.6691438051236958
 51
251.9972921748538113
  0
LINE
  5
3CFE6
  8
0
 10
6750.7279613146147312
 20
331.7608283140169192
 30
0.0
 11
6750.7323048007674515
 21
331.785452142130282
 31
0.0
  0
LINE
  5
3CFE7
  8
0
 10
6750.7038814479092252
 20
331.7438372909156215
 30
0.0
 11
6750.7038810760095657
 21
332.696068690515574
 31
0.0
  0
ARC
  5
3CFE8
  8
0
 10
6750.9066859002086858
 20
329.9120901205163818
 30
0.0
 40
2.8663941080991862
 50
89.9999760174232364
 51
92.6089616953237567
  0
ARC
  5
3CFE9
  8
0
 10
6750.7833672518672756
 20
332.6963493350547765
 30
0.0
 40
0.0794866712970264
 50
95.1662313355224967
 51
180.2022953129940106
  0
LINE
  5
3CFEA
  8
0
 10
6751.0789164586230982
 20
331.7547409610066893
 30
0.0
 11
6751.061780585843735
 21
331.7264722404814279
 31
0.0
  0
LINE
  5
3CFEB
  8
0
 10
6751.0810689994614222
 20
331.7619707706668919
 30
0.0
 11
6751.0810848062719742
 21
332.6903775350891124
 31
0.0
  0
ARC
  5
3CFEC
  8
0
 10
6751.068914274481358
 20
331.7616782452303141
 30
0.0
 40
0.0121582445480572
 50
325.1098784890215256
 51
1.3786604070656661
  0
ARC
  5
3CFED
  8
0
 10
6751.0951267452328466
 20
331.7625493968533874
 30
0.0
 40
0.0098651507316688
 50
190.0472859462065003
 51
242.1670521118462887
  0
LINE
  5
3CFEE
  8
0
 10
6751.0905207533069188
 20
331.7538255194274939
 30
0.0
 11
6751.1094927521080535
 21
331.7438372909156215
 31
0.0
  0
ARC
  5
3CFEF
  8
0
 10
6751.1141119873618663
 20
331.7526763877730787
 30
0.0
 40
0.0099733127690919
 50
242.4088225301163106
 51
294.4718489514193038
  0
ARC
  5
3CFF0
  8
0
 10
6751.0262784202450348
 20
332.6941989082761211
 30
0.0
 40
0.0549394470522103
 50
356.0115090315910038
 51
89.0691715472633661
  0
ARC
  5
3CFF1
  8
0
 10
6750.9066933922558746
 20
330.1648618914397844
 30
0.0
 40
2.587075995502099
 50
87.3308276209608039
 51
90.0001393539517238
  0
LINE
  5
3CFF2
  8
0
 10
6751.061780585843735
 20
331.7264722404814279
 30
0.0
 11
6751.061784287008777
 21
332.6906590118156259
 31
0.0
  0
ARC
  5
3CFF3
  8
0
 10
6750.9066878735084174
 20
329.8026029342134962
 30
0.0
 40
2.9171741698020042
 50
87.4528614084855178
 51
90.0000305045340667
  0
ARC
  5
3CFF4
  8
0
 10
6751.0351470032292127
 20
332.6902812853555247
 30
0.0
 40
0.0266399617943892
 50
0.8124207298735777
 51
87.4528484849440133
  0
ARC
  5
3CFF5
  8
0
 10
6751.0446633769179243
 20
331.7369212223679256
 30
0.0
 40
0.0200544275394248
 50
316.5034938605193133
 51
328.5985540698778209
  0
ARC
  5
3CFF6
  8
0
 10
6751.0446976300127062
 20
331.7369682202449894
 30
0.0
 40
0.0200620117962972
 50
287.553269908596576
 51
316.3387925284553717
  0
LINE
  5
3CFF7
  8
0
 10
6751.0854128854007286
 20
331.7608283140169192
 30
0.0
 11
6751.0810693992498273
 21
331.785452142130282
 31
0.0
  0
LINE
  5
3CFF8
  8
0
 10
6751.1094927521080535
 20
331.7438372909156215
 30
0.0
 11
6751.109493124007713
 21
332.696068690515574
 31
0.0
  0
ARC
  5
3CFF9
  8
0
 10
6750.9066882998076835
 20
329.9120901205163818
 30
0.0
 40
2.8663941080991862
 50
87.3910383046762433
 51
90.0000239825767636
  0
ARC
  5
3CFFA
  8
0
 10
6751.0300069481518221
 20
332.6963493350547765
 30
0.0
 40
0.0794866712970264
 50
359.7977046870059894
 51
84.8337686644775175
  0
ARC
  5
3CFFB
  8
0
 10
6750.9066928610182003
 20
332.1966283049534923
 30
0.0
 40
0.4999918394566884
 50
179.9990648450441029
 51
0.0009351549559094
  0
ARC
  5
3CFFC
  8
0
 10
6751.382960444134369
 20
331.8679640328280129
 30
0.0
 40
0.078675307775731
 50
89.9755121579042765
 51
145.4120730845675098
  0
LINE
  5
3CFFD
  8
0
 10
6748.0130009955291825
 20
332.6040897271182075
 30
0.0
 11
6748.0130009955291825
 21
331.9860393334180912
 31
0.0
  0
LINE
  5
3CFFE
  8
0
 10
6750.406701021628578
 20
332.1966364655867778
 30
0.0
 11
6750.406701021628578
 21
334.6095109554181022
 31
0.0
  0
LINE
  5
3CFFF
  8
0
 10
6748.052400995527023
 20
332.6434897271182081
 30
0.0
 11
6750.406701021628578
 21
332.6434897271182081
 31
0.0
  0
LINE
  5
3D000
  8
0
 10
6748.052400995527023
 20
331.9466393334180907
 30
0.0
 11
6750.4304589032162767
 21
331.9466393334180907
 31
0.0
  0
ARC
  5
3D001
  8
0
 10
6748.052400995527023
 20
332.6040897271182075
 30
0.0
 40
0.0394
 50
90.0
 51
180.0
  0
ARC
  5
3D002
  8
0
 10
6748.052400995527023
 20
331.9860393334180912
 30
0.0
 40
0.0394
 50
179.9999999999934914
 51
270.0
  0
ARC
  5
3D003
  8
0
 10
6750.4304252779038507
 20
331.8679640328280129
 30
0.0
 40
0.078675307775731
 50
34.5879269154324902
 51
90.0244878420957093
  0
ENDSEC
  0
EOF
