  0
SECTION
  2
HEADER
  9
$ACADVER
  1
AC1009
  9
$INSBASE
 10
6746.5051352655209485
 20
333.2532073614917181
 30
0.0
  9
$EXTMIN
 10
6743.2590755836554308
 20
326.9313858166917157
 30
0.0
  9
$EXTMAX
 10
6746.5164216047869559
 20
334.3782073614917181
 30
0.0
  9
$LIMMIN
 10
0.0
 20
0.0
  9
$LIMMAX
 10
11.6929133858000007
 20
8.2677165353999982
  9
$ORTHOMODE
 70
     0
  9
$REGENMODE
 70
     1
  9
$FILLMODE
 70
     1
  9
$QTEXTMODE
 70
     0
  9
$MIRRTEXT
 70
     0
  9
$DRAGMODE
 70
     2
  9
$LTSCALE
 40
0.6431102362
  9
$OSMODE
 70
  4095
  9
$ATTMODE
 70
     1
  9
$TEXTSIZE
 40
0.2
  9
$TRACEWID
 40
0.05
  9
$TEXTSTYLE
  7
STANDARD
  9
$CLAYER
  8
0
  9
$CELTYPE
  6
BYLAYER
  9
$CECOLOR
 62
   256
  9
$DIMSCALE
 40
1.0
  9
$DIMASZ
 40
0.1875
  9
$DIMEXO
 40
0.0625
  9
$DIMDLI
 40
0.4443307087
  9
$DIMRND
 40
0.0
  9
$DIMDLE
 40
0.0
  9
$DIMEXE
 40
0.125
  9
$DIMTP
 40
0.01
  9
$DIMTM
 40
0.01
  9
$DIMTXT
 40
2.0
  9
$DIMCEN
 40
0.1052362205
  9
$DIMTSZ
 40
0.0
  9
$DIMTOL
 70
     1
  9
$DIMLIM
 70
     0
  9
$DIMTIH
 70
     1
  9
$DIMTOH
 70
     1
  9
$DIMSE1
 70
     0
  9
$DIMSE2
 70
     0
  9
$DIMTAD
 70
     0
  9
$DIMZIN
 70
     0
  9
$DIMBLK
  1

  9
$DIMASO
 70
     1
  9
$DIMSHO
 70
     1
  9
$DIMPOST
  1
\X
  9
$DIMAPOST
  1

  9
$DIMALT
 70
     1
  9
$DIMALTD
 70
     2
  9
$DIMALTF
 40
25.3999999999999986
  9
$DIMLFAC
 40
1.0
  9
$DIMTOFL
 70
     0
  9
$DIMTVP
 40
0.0
  9
$DIMTIX
 70
     0
  9
$DIMSOXD
 70
     0
  9
$DIMSAH
 70
     0
  9
$DIMBLK1
  1

  9
$DIMBLK2
  1

  9
$DIMSTYLE
  2
STANDARD
  9
$DIMCLRD
 70
     0
  9
$DIMCLRE
 70
     0
  9
$DIMCLRT
 70
     0
  9
$DIMTFAC
 40
1.0
  9
$DIMGAP
 40
0.09
  9
$LUNITS
 70
     2
  9
$LUPREC
 70
     4
  9
$SKETCHINC
 40
0.1
  9
$FILLETRAD
 40
0.0
  9
$AUNITS
 70
     0
  9
$AUPREC
 70
     0
  9
$MENU
  1
.
  9
$ELEVATION
 40
0.0
  9
$PELEVATION
 40
0.0
  9
$THICKNESS
 40
0.0
  9
$LIMCHECK
 70
     0
  9
$BLIPMODE
 70
     0
  9
$CHAMFERA
 40
0.0
  9
$CHAMFERB
 40
0.0
  9
$SKPOLY
 70
     0
  9
$TDCREATE
 40
2458060.468368056230247
  9
$TDUPDATE
 40
2460328.6608449080958962
  9
$TDINDWG
 40
0.9548681713
  9
$TDUSRTIMER
 40
0.9548681713
  9
$USRTIMER
 70
     1
  9
$ANGBASE
 50
0.0
  9
$ANGDIR
 70
     0
  9
$PDMODE
 70
     0
  9
$PDSIZE
 40
0.3125
  9
$PLINEWID
 40
0.0
  9
$COORDS
 70
     1
  9
$SPLFRAME
 70
     0
  9
$SPLINETYPE
 70
     6
  9
$SPLINESEGS
 70
     8
  9
$ATTDIA
 70
     1
  9
$ATTREQ
 70
     1
  9
$HANDLING
 70
     1
  9
$HANDSEED
  5
3D096
  9
$SURFTAB1
 70
     6
  9
$SURFTAB2
 70
     6
  9
$SURFTYPE
 70
     6
  9
$SURFU
 70
     6
  9
$SURFV
 70
     6
  9
$UCSNAME
  2

  9
$UCSORG
 10
0.0
 20
0.0
 30
0.0
  9
$UCSXDIR
 10
1.0
 20
0.0
 30
0.0
  9
$UCSYDIR
 10
0.0
 20
1.0
 30
0.0
  9
$PUCSNAME
  2

  9
$PUCSORG
 10
0.0
 20
0.0
 30
0.0
  9
$PUCSXDIR
 10
1.0
 20
0.0
 30
0.0
  9
$PUCSYDIR
 10
0.0
 20
1.0
 30
0.0
  9
$USERI1
 70
     0
  9
$USERI2
 70
     0
  9
$USERI3
 70
     0
  9
$USERI4
 70
     0
  9
$USERI5
 70
     0
  9
$USERR1
 40
0.0
  9
$USERR2
 40
0.0
  9
$USERR3
 40
0.0
  9
$USERR4
 40
0.0
  9
$USERR5
 40
0.0
  9
$WORLDVIEW
 70
     1
  9
$SHADEDGE
 70
     3
  9
$SHADEDIF
 70
    70
  9
$TILEMODE
 70
     1
  9
$MAXACTVP
 70
    64
  9
$PLIMCHECK
 70
     0
  9
$PEXTMIN
 10
1.0000000000000000E+20
 20
1.0000000000000000E+20
 30
1.0000000000000000E+20
  9
$PEXTMAX
 10
-1.0000000000000000E+20
 20
-1.0000000000000000E+20
 30
-1.0000000000000000E+20
  9
$PLIMMIN
 10
0.0
 20
0.0
  9
$PLIMMAX
 10
12.0
 20
9.0
  9
$UNITMODE
 70
     0
  9
$VISRETAIN
 70
     1
  9
$PLINEGEN
 70
     0
  9
$PSLTSCALE
 70
     1
  0
ENDSEC
  0
SECTION
  2
TABLES
  0
TABLE
  2
VPORT
 70
     1
  0
VPORT
  2
*ACTIVE
 70
     0
 10
0.0
 20
0.0
 11
1.0
 21
1.0
 12
2833.5223921489091481
 22
198.0751914865525976
 13
0.0
 23
0.0
 14
1.0
 24
1.0
 15
0.0
 25
0.0
 16
0.0
 26
0.0
 36
60.4960186965801583
 17
3911.3653564453120453
 27
132.5796051025390057
 37
0.0
 40
7.4964119213469749
 41
2.1211111111111101
 42
50.0
 43
0.0
 44
0.0
 50
0.0
 51
0.0
 71
     0
 72
   100
 73
     1
 74
     1
 75
     0
 76
     0
 77
     0
 78
     0
  0
ENDTAB
  0
TABLE
  2
LTYPE
 70
     3
  0
LTYPE
  2
CONTINUOUS
 70
     0
  3
Solid line
 72
    65
 73
     0
 40
0.0
  0
LTYPE
  2
PHANTOM2
 70
     0
  3
___ _ _ ___ _ _ ___ _ _ ___ _ _
 72
    65
 73
     6
 40
1.25
 49
0.625
 49
-0.125
 49
0.125
 49
-0.125
 49
0.125
 49
-0.125
  0
ENDTAB
  0
TABLE
  2
LAYER
 70
     2
  0
LAYER
  2
0
 70
     0
 62
   255
  6
CONTINUOUS
  0
LAYER
  2
DEFPOINTS
 70
     0
 62
     7
  6
CONTINUOUS
  0
ENDTAB
  0
TABLE
  2
STYLE
 70
     1
  0
STYLE
  2
STANDARD
 70
     0
 40
0.0
 41
0.8
 50
0.0
 71
     0
 42
0.2
  3
txt
  4

  0
ENDTAB
  0
TABLE
  2
VIEW
 70
     0
  0
ENDTAB
  0
TABLE
  2
UCS
 70
     0
  0
ENDTAB
  0
TABLE
  2
APPID
 70
    11
  0
APPID
  2
ACAD
 70
     0
  0
APPID
  2
ACAD_MLEADERVER
 70
     0
  0
APPID
  2
ACAD_EXEMPT_FROM_CAD_STANDARDS
 70
     0
  0
APPID
  2
ACAD_NAV_VCDISPLAY
 70
     0
  0
APPID
  2
ACAECLAYERSTANDARD
 70
     0
  0
APPID
  2
ACCMTRANSPARENCY
 70
     0
  0
APPID
  2
ACAD_DSTYLE_DIMJAG
 70
     0
  0
APPID
  2
ACAD_DSTYLE_DIMTALN
 70
     0
  0
APPID
  2
ACDBATTR
 70
     0
  0
APPID
  2
ACADANNOTATIVE
 70
     0
  0
APPID
  2
DCO15
 70
     0
  0
ENDTAB
  0
TABLE
  2
DIMSTYLE
 70
     2
  0
DIMSTYLE
  2
STANDARD
 70
     0
  3

  4

  5

  6

  7

 40
1.0
 41
0.1875
 42
0.0625
 43
0.38
 44
0.125
 45
0.0
 46
0.0
 47
0.01
 48
0.01
140
0.15625
141
0.09
142
0.0
143
25.3999999999999986
144
1.0
145
0.0
146
1.0
147
0.09
 71
     1
 72
     0
 73
     1
 74
     1
 75
     0
 76
     0
 77
     0
 78
     4
170
     0
171
     2
172
     0
173
     0
174
     0
175
     0
176
     0
177
     0
178
     0
  0
ENDTAB
  0
ENDSEC
  0
SECTION
  2
BLOCKS
  0
BLOCK
  8
0
  2
$MODEL_SPACE
 70
     0
 10
0.0
 20
0.0
 30
0.0
  3
$MODEL_SPACE
  1

  0
ENDBLK
  5
21
  8
0
  0
BLOCK
 67
     1
  8
0
  2
$PAPER_SPACE
 70
     0
 10
0.0
 20
0.0
 30
0.0
  3
$PAPER_SPACE
  1

  0
ENDBLK
  5
1D
 67
     1
  8
0
  0
ENDSEC
  0
SECTION
  2
ENTITIES
  0
ATTDEF
  5
3A071
  8
DEFPOINTS
 10
6746.5057549381190256
 20
333.2537802402463853
 30
0.0
 40
0.001
  1
P34596-BV
  3

  2
MODELNUMBER
 70
     0
1001
ACDBATTR
1070
     0
1070
     1
  0
ATTDEF
  5
3A072
  8
DEFPOINTS
 10
6746.505629128460896
 20
333.2521133998673122
 30
0.0
 40
0.001
  1
VICE
  3

  2
TRADENAME
 70
     0
1001
ACDBATTR
1070
     0
1070
     1
  0
ATTDEF
  5
3A073
  8
DEFPOINTS
 10
6746.5057549381190256
 20
333.2504469069131119
 30
0.0
 40
0.001
  1
TOWEL RING
  3

  2
PRODUCT
 70
     0
1001
ACDBATTR
1070
     0
1070
     1
  0
LINE
  5
3CE9C
  8
0
 10
6746.5051352655209485
 20
334.3782073614917181
 30
0.0
 11
6746.5051352655209485
 21
332.1282073614917181
 31
0.0
  0
LINE
  5
3CE9D
  8
0
 10
6746.1719232923223899
 20
333.957464403422307
 30
0.0
 11
6746.1719232923223899
 21
332.5489381358380001
 31
0.0
  0
LINE
  5
3CE9E
  8
0
 10
6746.2989490974086948
 20
334.3782073614917181
 30
0.0
 11
6746.5051352655209485
 21
334.3782073614917181
 31
0.0
  0
LINE
  5
3CE9F
  8
0
 10
6746.2606516177520461
 20
334.3480627951296924
 30
0.0
 11
6746.1774330957559869
 21
334.0037180806639867
 31
0.0
  0
ARC
  5
3CEA0
  8
0
 10
6746.2989490974086948
 20
334.3388073614917175
 30
0.0
 40
0.0394
 50
90.0
 51
166.4137128197656921
  0
ARC
  5
3CEA1
  8
0
 10
6746.3688232923213945
 20
333.957464403422307
 30
0.0
 40
0.1969
 50
166.4137128197561992
 51
179.9999999999967031
  0
LINE
  5
3CEA2
  8
0
 10
6746.2606516177520461
 20
334.3480627951296924
 30
0.0
 11
6746.2606516177520461
 21
332.1583519278536869
 31
0.0
  0
LINE
  5
3CEA3
  8
0
 10
6743.7590755836554308
 20
333.7532073614917181
 30
0.0
 11
6744.2669518338116177
 21
333.7532073614917181
 31
0.0
  0
ARC
  5
3CEA4
  8
0
 10
6744.2669518338116177
 20
333.7335073614917178
 30
0.0
 40
0.0197
 50
40.0041879129963078
 51
90.0
  0
LINE
  5
3CEA5
  8
0
 10
6744.3428384564458611
 20
333.7532073614917181
 30
0.0
 11
6746.1719232923223899
 21
333.7532073614917181
 31
0.0
  0
LINE
  5
3CEA6
  8
0
 10
6743.2590755836554308
 20
332.745173884558028
 30
0.0
 11
6743.2590755836554308
 21
333.2532073614917181
 31
0.0
  0
LINE
  5
3CEA7
  8
0
 10
6743.2590755836554308
 20
332.6649670416798017
 30
0.0
 11
6743.2590755836554308
 21
331.9933798023917007
 31
0.0
  0
ARC
  5
3CEA8
  8
0
 10
6743.2692755836560536
 20
332.6649670416798017
 30
0.0
 40
0.0102
 50
140.0238504816921079
 51
180.0
  0
LINE
  5
3CEA9
  8
0
 10
6743.2590755836554308
 20
331.9539798023917001
 30
0.0
 11
6743.2590755836554308
 21
331.5933504233148028
 31
0.0
  0
LINE
  5
3CEAA
  8
0
 10
6743.5090516703212415
 20
331.7345055020917926
 30
0.0
 11
6743.5090516703212415
 21
326.9707858166917163
 31
0.0
  0
LINE
  5
3CEAB
  8
0
 10
6743.548451670320901
 20
326.9313858166917157
 30
0.0
 11
6744.1665020639202339
 21
326.9313858166917157
 31
0.0
  0
LINE
  5
3CEAC
  8
0
 10
6743.3934811349790834
 20
331.4589448719917186
 30
0.0
 11
6743.5090516703212415
 21
331.4589448719917186
 31
0.0
  0
LINE
  5
3CEAD
  8
0
 10
6743.270615576477212
 20
331.5654904161360719
 30
0.0
 11
6743.3656211278002957
 21
331.4704848648129882
 31
0.0
  0
ARC
  5
3CEAE
  8
0
 10
6743.2984755836559998
 20
331.5933504233148028
 30
0.0
 40
0.0394
 50
180.0000000000065086
 51
224.9999999999930935
  0
ARC
  5
3CEAF
  8
0
 10
6743.3934811349790834
 20
331.4983448719917192
 30
0.0
 40
0.0394
 50
224.9999999999953957
 51
270.0
  0
LINE
  5
3CEB0
  8
0
 10
6743.2787755836561701
 20
331.9736798023917004
 30
0.0
 11
6744.4361781505867839
 21
331.9736798023917004
 31
0.0
  0
ARC
  5
3CEB1
  8
0
 10
6743.2787755836561701
 20
331.9933798023917007
 30
0.0
 40
0.0197
 50
179.9999999999934914
 51
270.0
  0
ARC
  5
3CEB2
  8
0
 10
6743.2787755836561701
 20
331.9539798023917001
 30
0.0
 40
0.0197
 50
90.0
 51
180.0000000000065086
  0
LINE
  5
3CEB3
  8
0
 10
6743.2661171857926092
 20
332.7300790190877251
 30
0.0
 11
6743.2976427648645767
 21
332.7036419949548076
 31
0.0
  0
LINE
  5
3CEB4
  8
0
 10
6743.2929153473405677
 20
332.6911404232952236
 30
0.0
 11
6743.2789637439291255
 21
332.6886803790994804
 31
0.0
  0
ARC
  5
3CEB5
  8
0
 10
6743.2807349554041139
 20
332.6786353400299276
 30
0.0
 40
0.0102
 50
100.000000357810606
 51
140.0238504816921079
  0
LINE
  5
3CEB6
  8
0
 10
6743.2729185735179271
 20
332.6851885204956716
 30
0.0
 11
6743.2614592017698669
 21
332.6715202221456025
 31
0.0
  0
ARC
  5
3CEB7
  8
0
 10
6743.2787755836561701
 20
332.745173884558028
 30
0.0
 40
0.0197
 50
179.9999999999870113
 51
230.0171513701494064
  0
ARC
  5
3CEB8
  8
0
 10
6743.2002264736211146
 20
332.7333349489219927
 30
0.0
 40
0.1018410786686281
 50
334.1487943938702188
 51
343.0485265325825139
  0
ARC
  5
3CEB9
  8
0
 10
6743.7590755836554308
 20
333.2532073614917181
 30
0.0
 40
0.5
 50
90.0
 51
180.0
  0
LINE
  5
3CEBA
  8
0
 10
6744.3076742074299545
 20
333.7156286198144812
 30
0.0
 11
6744.2820419837316877
 21
333.7461713804186729
 31
0.0
  0
LINE
  5
3CEBB
  8
0
 10
6744.3171853868507242
 20
333.7193481712795915
 30
0.0
 11
6744.3197350575837845
 21
333.7338204420843226
 31
0.0
  0
LINE
  5
3CEBC
  8
0
 10
6744.3227109076942725
 20
333.7389755873667809
 30
0.0
 11
6744.337246258374762
 21
333.7511719935703809
 31
0.0
  0
ARC
  5
3CEBD
  8
0
 10
6744.3283031057635526
 20
333.7323109552880283
 30
0.0
 40
0.0087
 50
129.9995346076482008
 51
170.0083747505173903
  0
ARC
  5
3CEBE
  8
0
 10
6744.3428384564458611
 20
333.7445073614916851
 30
0.0
 40
0.0087
 50
90.0
 51
129.999534607650304
  0
ARC
  5
3CEBF
  8
0
 10
6743.1411006535263368
 20
332.7520274633648114
 30
0.0
 40
0.1638492787856195
 50
342.8241882987625218
 51
355.5801122045210718
  0
ARC
  5
3CEC0
  8
0
 10
6743.08770881617329
 20
332.7561543842817855
 30
0.0
 40
0.2174003737516163
 50
355.5801122045210718
 51
0.8070116583109207
  0
LINE
  5
3CEC1
  8
0
 10
6743.3050876255210824
 20
332.7592163695916838
 30
0.0
 11
6743.3050876026136393
 21
333.2532073614917181
 31
0.0
  0
LINE
  5
3CEC2
  8
0
 10
6744.2545244480206748
 20
333.7071706072916868
 30
0.0
 11
6743.7591634286218323
 21
333.7071692237917091
 31
0.0
  0
ARC
  5
3CEC3
  8
0
 10
6743.7594603736242789
 20
333.2527963639303721
 30
0.0
 40
0.4543729568921758
 50
90.0374443424717583
 51
179.9481737887099086
  0
ARC
  5
3CEC4
  8
0
 10
6744.2539705525723548
 20
333.8861567682088776
 30
0.0
 40
0.1789868145845976
 50
270.1772692453728268
 51
282.9568278772521239
  0
ARC
  5
3CEC5
  8
0
 10
6744.2647267377506068
 20
333.8394687905147862
 30
0.0
 40
0.1310758293155732
 50
282.9506663463067753
 51
293.5916847560819747
  0
ARC
  5
3CEC6
  8
0
 10
6744.3190895929410544
 20
333.7384947900594057
 30
0.0
 40
0.0156899547609775
 50
305.0601383740599886
 51
341.3483657199498111
  0
ARC
  5
3CEC7
  8
0
 10
6744.2870312927780105
 20
333.7841766614758967
 30
0.0
 40
0.0714982694229716
 50
294.9448556208984087
 51
305.0601383740599886
  0
LINE
  5
3CEC8
  8
0
 10
6744.3339555204220233
 20
333.7334769338917226
 30
0.0
 11
6744.337246258374762
 21
333.7511719935703809
 31
0.0
  0
ARC
  5
3CEC9
  8
0
 10
6743.2648720339393549
 20
332.7580542589207084
 30
0.0
 40
0.0154121290445904
 50
319.4013899622809163
 51
5.448231459794826
  0
ARC
  5
3CECA
  8
0
 10
6743.2966249557548508
 20
332.7480446449238798
 30
0.0
 40
0.0200507010278804
 50
180.056917538952888
 51
228.7222079605649014
  0
LINE
  5
3CECB
  8
0
 10
6743.2833972992211784
 20
332.7329761441916958
 30
0.0
 11
6743.3012855830547778
 21
332.7175041980941046
 31
0.0
  0
LINE
  5
3CECC
  8
0
 10
6743.2802145370224025
 20
332.7595175841917126
 30
0.0
 11
6743.2802375104220118
 21
333.2532038031916954
 31
0.0
  0
ARC
  5
3CECD
  8
0
 10
6743.7590440788490014
 20
333.2532287338477772
 30
0.0
 40
0.4788171331046618
 50
89.9990874439547923
 51
180.0029833012646918
  0
LINE
  5
3CECE
  8
0
 10
6743.7590517050211929
 20
333.732045866891724
 30
0.0
 11
6744.2528092363208998
 21
333.73204536739172
 31
0.0
  0
LINE
  5
3CECF
  8
0
 10
6744.2671492334102368
 20
333.7532063724668774
 30
0.0
 11
6744.2642348519220832
 21
333.735729522091674
 31
0.0
  0
ARC
  5
3CED0
  8
0
 10
6744.2542607485083863
 20
333.7471924002010724
 30
0.0
 40
0.0152164217395304
 50
264.52616587499449
 51
311.1196199153686734
  0
LINE
  5
3CED1
  8
0
 10
6744.1665020639202339
 20
331.7739055020917931
 30
0.0
 11
6743.548451670320901
 21
331.7739055020917931
 31
0.0
  0
ARC
  5
3CED2
  8
0
 10
6743.548451670320901
 20
331.7345055020917926
 30
0.0
 40
0.0394
 50
90.0
 51
180.0
  0
ARC
  5
3CED3
  8
0
 10
6743.548451670320901
 20
326.9707858166917163
 30
0.0
 40
0.0394
 50
180.0
 51
270.0
  0
ARC
  5
3CED4
  8
0
 10
6743.2510199738080701
 20
332.7077988286770278
 30
0.0
 40
0.0450035649186934
 50
320.843955632193115
 51
335.2092965613862816
  0
ARC
  5
3CED5
  8
0
 10
6743.2715335770817546
 20
332.6910768853052218
 30
0.0
 40
0.0185379106673158
 50
301.8661479020136085
 51
320.8862466595259093
  0
ARC
  5
3CED6
  8
0
 10
6743.2775790045743634
 20
332.6813516968206272
 30
0.0
 40
0.0070868633525061
 50
279.7786942709586242
 51
301.8661479020170191
  0
LINE
  5
3CED7
  8
0
 10
6743.2787826591211342
 20
332.6743677976295999
 30
0.0
 11
6743.2614592017698669
 21
332.6715202221456025
 31
0.0
  0
LINE
  5
3CED8
  8
0
 10
6743.2590755836554308
 20
331.5933504233148028
 30
0.0
 11
6743.5090516703212415
 21
331.5933504233148028
 31
0.0
  0
LINE
  5
3CED9
  8
0
 10
6744.4559020640217568
 20
332.1921837394917247
 30
0.0
 11
6744.4558781505857041
 21
331.9933798023917007
 31
0.0
  0
LINE
  5
3CEDA
  8
0
 10
6744.4558781505857041
 20
331.9539798023917001
 30
0.0
 11
6744.4558781505857041
 21
331.5933504233148028
 31
0.0
  0
LINE
  5
3CEDB
  8
0
 10
6744.2059020639217124
 20
331.7345055020917926
 30
0.0
 11
6744.2059020639217124
 21
326.9707858166917163
 31
0.0
  0
LINE
  5
3CEDC
  8
0
 10
6744.3214725992638705
 20
331.4589448719917186
 30
0.0
 11
6744.2059020639217124
 21
331.4589448719917186
 31
0.0
  0
LINE
  5
3CEDD
  8
0
 10
6744.4443381577657419
 20
331.5654904161360719
 30
0.0
 11
6744.3493326064426583
 21
331.4704848648129882
 31
0.0
  0
ARC
  5
3CEDE
  8
0
 10
6744.4164781505869541
 20
331.5933504233148028
 30
0.0
 40
0.0394
 50
315.0000000000069917
 51
359.9999999999935199
  0
ARC
  5
3CEDF
  8
0
 10
6744.3214725992638705
 20
331.4983448719917192
 30
0.0
 40
0.0394
 50
270.0
 51
315.0000000000046043
  0
ARC
  5
3CEE0
  8
0
 10
6744.4361781505867839
 20
331.9933798023917007
 30
0.0
 40
0.0197
 50
270.0
 51
0.0000000000065138
  0
ARC
  5
3CEE1
  8
0
 10
6744.4361781505867839
 20
331.9539798023917001
 30
0.0
 40
0.0197
 50
359.9999999999935199
 51
90.0
  0
ARC
  5
3CEE2
  8
0
 10
6744.1665020639202339
 20
331.7345055020917926
 30
0.0
 40
0.0394
 50
0.0
 51
90.0
  0
ARC
  5
3CEE3
  8
0
 10
6744.1665020639202339
 20
326.9707858166917163
 30
0.0
 40
0.0394
 50
270.0
 51
0.0
  0
LINE
  5
3CEE4
  8
0
 10
6744.4558781505857041
 20
331.5933504233148028
 30
0.0
 11
6744.2059020639217124
 21
331.5933504233148028
 31
0.0
  0
LINE
  5
3CEE5
  8
0
 10
6744.4559020640217568
 20
332.1921837394917247
 30
0.0
 11
6743.8165918006216089
 21
332.1921837394917247
 31
0.0
  0
LINE
  5
3CEE6
  8
0
 10
6746.2989490974086948
 20
332.1282073614917181
 30
0.0
 11
6746.5051352655209485
 21
332.1282073614917181
 31
0.0
  0
LINE
  5
3CEE7
  8
0
 10
6746.2606516177520461
 20
332.1583519278536869
 30
0.0
 11
6746.1774330957559869
 21
332.5026966423195063
 31
0.0
  0
ARC
  5
3CEE8
  8
0
 10
6746.2989490974086948
 20
332.1676073614917186
 30
0.0
 40
0.0394
 50
193.5862871802343079
 51
270.0
  0
ARC
  5
3CEE9
  8
0
 10
6746.368823318757677
 20
332.5489503243151717
 30
0.0
 40
0.1969000268143508
 50
180.0035467151471948
 51
193.586286717773902
  0
LINE
  5
3CEEA
  8
0
 10
6744.3428384564458611
 20
332.7072146421916727
 30
0.0
 11
6746.1719232923223899
 21
332.7072146421916727
 31
0.0
  0
LINE
  5
3CEEB
  8
0
 10
6744.3050685153211816
 20
332.6678439755917225
 30
0.0
 11
6744.3050682243210758
 21
332.1980890874917236
 31
0.0
  0
LINE
  5
3CEEC
  8
0
 10
6744.3050682243210758
 20
332.1980890874917236
 30
0.0
 11
6743.9559248289206153
 21
332.1980890874917236
 31
0.0
  0
LINE
  5
3CEED
  8
0
 10
6743.9559248289206153
 20
332.1921837394917247
 30
0.0
 11
6743.9559248289206153
 21
332.9185569677918011
 31
0.0
  0
LINE
  5
3CEEE
  8
0
 10
6744.0937248289210402
 20
333.0563569677917144
 30
0.0
 11
6746.1719232923223899
 21
333.0563569677917144
 31
0.0
  0
ARC
  5
3CEEF
  8
0
 10
6744.0937248289210402
 20
332.9185569677918011
 30
0.0
 40
0.1378
 50
90.0
 51
180.0
  0
LINE
  5
3CEF0
  8
0
 10
6744.1709777883206698
 20
332.8413050783958056
 30
0.0
 11
6746.1719232923223899
 21
332.8413050783958056
 31
0.0
  0
LINE
  5
3CEF1
  8
0
 10
6744.1709777879041212
 20
332.8413050783958056
 30
0.0
 11
6744.1709777879041212
 21
332.1980890874917236
 31
0.0
  0
LINE
  5
3CEF2
  8
0
 10
6744.0936918006209453
 20
333.1956671107917032
 30
0.0
 11
6746.1719232923223899
 21
333.1956671107917032
 31
0.0
  0
ARC
  5
3CEF3
  8
0
 10
6744.0936918006209453
 20
332.9185671107916846
 30
0.0
 40
0.2771
 50
90.0
 51
180.0
  0
LINE
  5
3CEF4
  8
0
 10
6743.8165918006216089
 20
332.1921837394917247
 30
0.0
 11
6743.8165918006216089
 21
332.9185671107916846
 31
0.0
  0
LINE
  5
3CEF5
  8
0
 10
6744.098434689421083
 20
332.1980890874917236
 30
0.0
 11
6744.0984862246214107
 21
332.1921837394917247
 31
0.0
  0
ARC
  5
3CEF6
  8
0
 10
6744.3445266778862788
 20
332.667792578024887
 30
0.0
 40
0.0394581960409522
 50
92.4521521160726536
 51
179.9253674830075056
  0
LINE
  5
3CEF7
  8
0
 10
6744.3160526796373233
 20
332.6951088855799981
 30
0.0
 11
6744.1709777879041212
 21
332.8413050783958056
 31
0.0
  0
ENDSEC
  0
EOF
