  0
SECTION
  2
HEADER
  9
$ACADVER
  1
AC1009
  9
$INSBASE
 10
6762.2152114597511172
 20
331.0385801460521975
 30
0.0
  9
$EXTMIN
 10
6759.3215114336508123
 20
324.7167586012521951
 30
0.0
  9
$EXTMAX
 10
6765.1089114858496032
 20
332.1635801460521975
 30
0.0
  9
$LIMMIN
 10
0.0
 20
0.0
  9
$LIMMAX
 10
11.6929133858000007
 20
8.2677165353999982
  9
$ORTHOMODE
 70
     0
  9
$REGENMODE
 70
     1
  9
$FILLMODE
 70
     1
  9
$QTEXTMODE
 70
     0
  9
$MIRRTEXT
 70
     0
  9
$DRAGMODE
 70
     2
  9
$LTSCALE
 40
0.6431102362
  9
$OSMODE
 70
  4095
  9
$ATTMODE
 70
     1
  9
$TEXTSIZE
 40
0.2
  9
$TRACEWID
 40
0.05
  9
$TEXTSTYLE
  7
STANDARD
  9
$CLAYER
  8
0
  9
$CELTYPE
  6
BYLAYER
  9
$CECOLOR
 62
   256
  9
$DIMSCALE
 40
1.0
  9
$DIMASZ
 40
0.1875
  9
$DIMEXO
 40
0.0625
  9
$DIMDLI
 40
0.4443307087
  9
$DIMRND
 40
0.0
  9
$DIMDLE
 40
0.0
  9
$DIMEXE
 40
0.125
  9
$DIMTP
 40
0.01
  9
$DIMTM
 40
0.01
  9
$DIMTXT
 40
2.0
  9
$DIMCEN
 40
0.1052362205
  9
$DIMTSZ
 40
0.0
  9
$DIMTOL
 70
     1
  9
$DIMLIM
 70
     0
  9
$DIMTIH
 70
     1
  9
$DIMTOH
 70
     1
  9
$DIMSE1
 70
     0
  9
$DIMSE2
 70
     0
  9
$DIMTAD
 70
     0
  9
$DIMZIN
 70
     0
  9
$DIMBLK
  1

  9
$DIMASO
 70
     1
  9
$DIMSHO
 70
     1
  9
$DIMPOST
  1
\X
  9
$DIMAPOST
  1

  9
$DIMALT
 70
     1
  9
$DIMALTD
 70
     2
  9
$DIMALTF
 40
25.3999999999999986
  9
$DIMLFAC
 40
1.0
  9
$DIMTOFL
 70
     0
  9
$DIMTVP
 40
0.0
  9
$DIMTIX
 70
     0
  9
$DIMSOXD
 70
     0
  9
$DIMSAH
 70
     0
  9
$DIMBLK1
  1

  9
$DIMBLK2
  1

  9
$DIMSTYLE
  2
STANDARD
  9
$DIMCLRD
 70
     0
  9
$DIMCLRE
 70
     0
  9
$DIMCLRT
 70
     0
  9
$DIMTFAC
 40
1.0
  9
$DIMGAP
 40
0.09
  9
$LUNITS
 70
     2
  9
$LUPREC
 70
     4
  9
$SKETCHINC
 40
0.1
  9
$FILLETRAD
 40
0.0
  9
$AUNITS
 70
     0
  9
$AUPREC
 70
     0
  9
$MENU
  1
.
  9
$ELEVATION
 40
0.0
  9
$PELEVATION
 40
0.0
  9
$THICKNESS
 40
0.0
  9
$LIMCHECK
 70
     0
  9
$BLIPMODE
 70
     0
  9
$CHAMFERA
 40
0.0
  9
$CHAMFERB
 40
0.0
  9
$SKPOLY
 70
     0
  9
$TDCREATE
 40
2458060.468368056230247
  9
$TDUPDATE
 40
2460328.6594907408580184
  9
$TDINDWG
 40
0.9569052083
  9
$TDUSRTIMER
 40
0.9569052083
  9
$USRTIMER
 70
     1
  9
$ANGBASE
 50
0.0
  9
$ANGDIR
 70
     0
  9
$PDMODE
 70
     0
  9
$PDSIZE
 40
0.3125
  9
$PLINEWID
 40
0.0
  9
$COORDS
 70
     1
  9
$SPLFRAME
 70
     0
  9
$SPLINETYPE
 70
     6
  9
$SPLINESEGS
 70
     8
  9
$ATTDIA
 70
     1
  9
$ATTREQ
 70
     1
  9
$HANDLING
 70
     1
  9
$HANDSEED
  5
3D267
  9
$SURFTAB1
 70
     6
  9
$SURFTAB2
 70
     6
  9
$SURFTYPE
 70
     6
  9
$SURFU
 70
     6
  9
$SURFV
 70
     6
  9
$UCSNAME
  2

  9
$UCSORG
 10
0.0
 20
0.0
 30
0.0
  9
$UCSXDIR
 10
1.0
 20
0.0
 30
0.0
  9
$UCSYDIR
 10
0.0
 20
1.0
 30
0.0
  9
$PUCSNAME
  2

  9
$PUCSORG
 10
0.0
 20
0.0
 30
0.0
  9
$PUCSXDIR
 10
1.0
 20
0.0
 30
0.0
  9
$PUCSYDIR
 10
0.0
 20
1.0
 30
0.0
  9
$USERI1
 70
     0
  9
$USERI2
 70
     0
  9
$USERI3
 70
     0
  9
$USERI4
 70
     0
  9
$USERI5
 70
     0
  9
$USERR1
 40
0.0
  9
$USERR2
 40
0.0
  9
$USERR3
 40
0.0
  9
$USERR4
 40
0.0
  9
$USERR5
 40
0.0
  9
$WORLDVIEW
 70
     1
  9
$SHADEDGE
 70
     3
  9
$SHADEDIF
 70
    70
  9
$TILEMODE
 70
     1
  9
$MAXACTVP
 70
    64
  9
$PLIMCHECK
 70
     0
  9
$PEXTMIN
 10
1.0000000000000000E+20
 20
1.0000000000000000E+20
 30
1.0000000000000000E+20
  9
$PEXTMAX
 10
-1.0000000000000000E+20
 20
-1.0000000000000000E+20
 30
-1.0000000000000000E+20
  9
$PLIMMIN
 10
0.0
 20
0.0
  9
$PLIMMAX
 10
12.0
 20
9.0
  9
$UNITMODE
 70
     0
  9
$VISRETAIN
 70
     1
  9
$PLINEGEN
 70
     0
  9
$PSLTSCALE
 70
     1
  0
ENDSEC
  0
SECTION
  2
TABLES
  0
TABLE
  2
VPORT
 70
     1
  0
VPORT
  2
*ACTIVE
 70
     0
 10
0.0
 20
0.0
 11
1.0
 21
1.0
 12
2850.8498550144381625
 22
195.8605642711131054
 13
0.0
 23
0.0
 14
1.0
 24
1.0
 15
0.0
 25
0.0
 16
0.0
 26
0.0
 36
60.4960186965801583
 17
3911.3653564453120453
 27
132.5796051025390057
 37
0.0
 40
7.4964119213470317
 41
2.1211111111111101
 42
50.0
 43
0.0
 44
0.0
 50
0.0
 51
0.0
 71
     0
 72
   100
 73
     1
 74
     1
 75
     0
 76
     0
 77
     0
 78
     0
  0
ENDTAB
  0
TABLE
  2
LTYPE
 70
     2
  0
LTYPE
  2
CONTINUOUS
 70
     0
  3
Solid line
 72
    65
 73
     0
 40
0.0
  0
LTYPE
  2
PHANTOM2
 70
     0
  3
___ _ _ ___ _ _ ___ _ _ ___ _ _
 72
    65
 73
     6
 40
1.25
 49
0.625
 49
-0.125
 49
0.125
 49
-0.125
 49
0.125
 49
-0.125
  0
ENDTAB
  0
TABLE
  2
LAYER
 70
     2
  0
LAYER
  2
0
 70
     0
 62
   255
  6
CONTINUOUS
  0
LAYER
  2
DEFPOINTS
 70
     0
 62
     7
  6
CONTINUOUS
  0
ENDTAB
  0
TABLE
  2
STYLE
 70
     1
  0
STYLE
  2
STANDARD
 70
     0
 40
0.0
 41
0.8
 50
0.0
 71
     0
 42
0.2
  3
txt
  4

  0
ENDTAB
  0
TABLE
  2
VIEW
 70
     0
  0
ENDTAB
  0
TABLE
  2
UCS
 70
     0
  0
ENDTAB
  0
TABLE
  2
APPID
 70
    11
  0
APPID
  2
ACAD
 70
     0
  0
APPID
  2
ACAD_MLEADERVER
 70
     0
  0
APPID
  2
ACAD_EXEMPT_FROM_CAD_STANDARDS
 70
     0
  0
APPID
  2
ACAD_NAV_VCDISPLAY
 70
     0
  0
APPID
  2
ACAECLAYERSTANDARD
 70
     0
  0
APPID
  2
ACCMTRANSPARENCY
 70
     0
  0
APPID
  2
ACAD_DSTYLE_DIMJAG
 70
     0
  0
APPID
  2
ACAD_DSTYLE_DIMTALN
 70
     0
  0
APPID
  2
ACDBATTR
 70
     0
  0
APPID
  2
ACADANNOTATIVE
 70
     0
  0
APPID
  2
DCO15
 70
     0
  0
ENDTAB
  0
TABLE
  2
DIMSTYLE
 70
     1
  0
DIMSTYLE
  2
STANDARD
 70
     0
  3

  4

  5

  6

  7

 40
1.0
 41
0.1875
 42
0.0625
 43
0.38
 44
0.125
 45
0.0
 46
0.0
 47
0.01
 48
0.01
140
0.15625
141
0.09
142
0.0
143
25.3999999999999986
144
1.0
145
0.0
146
1.0
147
0.09
 71
     1
 72
     0
 73
     1
 74
     1
 75
     0
 76
     0
 77
     0
 78
     4
170
     0
171
     2
172
     0
173
     0
174
     0
175
     0
176
     0
177
     0
178
     0
  0
ENDTAB
  0
ENDSEC
  0
SECTION
  2
BLOCKS
  0
BLOCK
  8
0
  2
$MODEL_SPACE
 70
     0
 10
0.0
 20
0.0
 30
0.0
  3
$MODEL_SPACE
  1

  0
ENDBLK
  5
21
  8
0
  0
BLOCK
 67
     1
  8
0
  2
$PAPER_SPACE
 70
     0
 10
0.0
 20
0.0
 30
0.0
  3
$PAPER_SPACE
  1

  0
ENDBLK
  5
1D
 67
     1
  8
0
  0
ENDSEC
  0
SECTION
  2
ENTITIES
  0
ATTDEF
  5
3A071
  8
DEFPOINTS
 10
6762.211541533869422
 20
331.0421633912084758
 30
0.0
 40
0.001
  1
P34596-CP
  3

  2
MODELNUMBER
 70
     0
1001
ACDBATTR
1070
     0
1070
     1
  0
ATTDEF
  5
3A072
  8
DEFPOINTS
 10
6762.2114157242112924
 20
331.0404965508294026
 30
0.0
 40
0.001
  1
VICE
  3

  2
TRADENAME
 70
     0
1001
ACDBATTR
1070
     0
1070
     1
  0
ATTDEF
  5
3A073
  8
DEFPOINTS
 10
6762.211541533869422
 20
331.0388300578752023
 30
0.0
 40
0.001
  1
TOWEL RING
  3

  2
PRODUCT
 70
     0
1001
ACDBATTR
1070
     0
1070
     1
  0
LINE
  5
3D0CD
  8
0
 10
6764.3807114858500427
 20
324.7167586012523088
 30
0.0
 11
6760.0497114336512823
 21
324.7167586012523088
 31
0.0
  0
LINE
  5
3D0CE
  8
0
 10
6762.695511459750378
 20
329.7590525869522935
 30
0.0
 11
6761.734911459750947
 21
329.7590525869522935
 31
0.0
  0
LINE
  5
3D0CF
  8
0
 10
6765.1089114858496032
 20
328.8310782866523141
 30
0.0
 11
6765.1089114858496032
 21
325.4449586012522104
 31
0.0
  0
LINE
  5
3D0D0
  8
0
 10
6764.3807114858500427
 20
329.5592782866522157
 30
0.0
 11
6762.7939114597511434
 21
329.5592782866522157
 31
0.0
  0
ARC
  5
3D0D1
  8
0
 10
6762.7939114669889022
 20
329.6379783041269889
 30
0.0
 40
0.0787000174747614
 50
179.9707769552136938
 51
269.9999947303551835
  0
LINE
  5
3D0D2
  8
0
 10
6761.6365114597520005
 20
329.5592782866522157
 30
0.0
 11
6760.0497114336512823
 21
329.5592782866522157
 31
0.0
  0
ARC
  5
3D0D3
  8
0
 10
6764.3807114858500427
 20
328.8310782866523141
 30
0.0
 40
0.7282
 50
0.0
 51
90.0
  0
ARC
  5
3D0D4
  8
0
 10
6764.3807114858500427
 20
325.4449586012522104
 30
0.0
 40
0.7282
 50
270.0
 51
0.0
  0
ARC
  5
3D0D5
  8
0
 10
6762.2152114597511172
 20
331.0385780773020201
 30
0.0
 40
1.1250020687502149
 50
296.3877476878419088
 51
243.6122523121580912
  0
ARC
  5
3D0D6
  8
0
 10
6762.2152114597511172
 20
331.0385801460521975
 30
0.0
 40
0.7505049753000002
 50
311.7758428248911855
 51
228.2241571751087861
  0
ARC
  5
3D0D7
  8
0
 10
6762.2152114597511172
 20
331.0385801460521975
 30
0.0
 40
0.5
 50
0.0
 51
180.0
  0
LINE
  5
3D0D8
  8
0
 10
6762.7152114597511172
 20
331.0385801460521975
 30
0.0
 11
6762.7152114597511172
 21
329.7787525869522938
 31
0.0
  0
LINE
  5
3D0D9
  8
0
 10
6762.7152114597511172
 20
329.7393525869522932
 30
0.0
 11
6762.7152114597511172
 21
329.6380184441522943
 31
0.0
  0
LINE
  5
3D0DA
  8
0
 10
6762.3874408183646665
 20
331.4805063137611114
 30
0.0
 11
6762.3703049455871223
 21
331.5087750342863728
 31
0.0
  0
LINE
  5
3D0DB
  8
0
 10
6762.3895933592039
 20
331.4732765041009088
 30
0.0
 11
6762.3896091660144521
 21
330.544869739678802
 31
0.0
  0
ARC
  5
3D0DC
  8
0
 10
6762.3774386342229263
 20
331.4735690295374866
 30
0.0
 40
0.0121582445480572
 50
358.6213395929343051
 51
34.8901215109784815
  0
ARC
  5
3D0DD
  8
0
 10
6762.4036511049753244
 20
331.4726978779144133
 30
0.0
 40
0.0098651507316688
 50
117.8329478881536971
 51
169.9527140537934997
  0
LINE
  5
3D0DE
  8
0
 10
6762.3990451130493966
 20
331.4814217553401932
 30
0.0
 11
6762.4180171118514409
 21
331.4914099838521793
 31
0.0
  0
ARC
  5
3D0DF
  8
0
 10
6762.4226026592314156
 20
331.4827005262462194
 30
0.0
 40
0.0098428601819922
 50
64.9658171189288254
 51
117.7668974392226033
  0
ARC
  5
3D0E0
  8
0
 10
6762.3348027799856936
 20
330.5410483664916796
 30
0.0
 40
0.0549394470522103
 50
270.930828452736705
 51
3.9884909684090522
  0
ARC
  5
3D0E1
  8
0
 10
6762.2152177519983525
 20
333.0703853833280164
 30
0.0
 40
2.587075995502099
 50
269.9998606460483188
 51
272.6691723790391961
  0
LINE
  5
3D0E2
  8
0
 10
6762.3703049455871223
 20
331.5087750342863728
 30
0.0
 11
6762.3703086467503454
 21
330.5445882629521748
 31
0.0
  0
ARC
  5
3D0E3
  8
0
 10
6762.2152122332499857
 20
333.4326443405541909
 30
0.0
 40
2.9171741698020042
 50
269.9999694954660185
 51
272.5471385915145106
  0
ARC
  5
3D0E4
  8
0
 10
6762.343671362970781
 20
330.544965989412276
 30
0.0
 40
0.0266399617943892
 50
272.5471515150559867
 51
359.1875792701264913
  0
ARC
  5
3D0E5
  8
0
 10
6762.3531877366604022
 20
331.4983260523998752
 30
0.0
 40
0.0200544275394248
 50
31.4014459301221791
 51
43.4965061394807009
  0
ARC
  5
3D0E6
  8
0
 10
6762.3535062510181888
 20
331.4986282743291213
 30
0.0
 40
0.0196153495378846
 50
43.4965061394807009
 51
72.9295690502908798
  0
LINE
  5
3D0E7
  8
0
 10
6762.3939372451432064
 20
331.4744189607508815
 30
0.0
 11
6762.3895937589923051
 21
331.4497951326375187
 31
0.0
  0
LINE
  5
3D0E8
  8
0
 10
6762.4180171118514409
 20
331.4914099838521793
 30
0.0
 11
6762.4180174837501909
 21
330.5391785842522268
 31
0.0
  0
ARC
  5
3D0E9
  8
0
 10
6762.2152126595510708
 20
333.3231571542514189
 30
0.0
 40
2.8663941080991862
 50
269.9999760174231938
 51
272.6089616953237282
  0
ARC
  5
3D0EA
  8
0
 10
6762.3385313078933905
 20
330.5388979397130242
 30
0.0
 40
0.0794866712970264
 50
275.1662313355225251
 51
0.2022953129940253
  0
LINE
  5
3D0EB
  8
0
 10
6762.0429821011366585
 20
331.4805063137611114
 30
0.0
 11
6762.0601179739151121
 21
331.5087750342863728
 31
0.0
  0
LINE
  5
3D0EC
  8
0
 10
6762.0408295602974249
 20
331.4732765041009088
 30
0.0
 11
6762.0408137534859634
 21
330.544869739678802
 31
0.0
  0
ARC
  5
3D0ED
  8
0
 10
6762.0529842852793081
 20
331.4735690295374866
 30
0.0
 40
0.0121582445480572
 50
145.1098784890214972
 51
181.3786604070656097
  0
ARC
  5
3D0EE
  8
0
 10
6762.02677181452691
 20
331.4726978779144133
 30
0.0
 40
0.0098651507316688
 50
10.04728594620655
 51
62.1670521118462815
  0
LINE
  5
3D0EF
  8
0
 10
6762.0313778064510188
 20
331.4814217553401932
 30
0.0
 11
6762.0124058076507936
 21
331.4914099838521793
 31
0.0
  0
ARC
  5
3D0F0
  8
0
 10
6762.0078202602708188
 20
331.4827005262462194
 30
0.0
 40
0.0098428601819922
 50
62.2331025607774109
 51
115.0341828810711036
  0
ARC
  5
3D0F1
  8
0
 10
6762.0956201395147218
 20
330.5410483664916796
 30
0.0
 40
0.0549394470522103
 50
176.0115090315908901
 51
269.0691715472634087
  0
ARC
  5
3D0F2
  8
0
 10
6762.2152051675029725
 20
333.0703853833280164
 30
0.0
 40
2.587075995502099
 50
267.3308276209608039
 51
270.0001393539516812
  0
LINE
  5
3D0F3
  8
0
 10
6762.0601179739151121
 20
331.5087750342863728
 30
0.0
 11
6762.0601142727509796
 21
330.5445882629521748
 31
0.0
  0
ARC
  5
3D0F4
  8
0
 10
6762.2152106862504297
 20
333.4326443405541909
 30
0.0
 40
2.9171741698020042
 50
267.4528614084854894
 51
270.0000305045339815
  0
ARC
  5
3D0F5
  8
0
 10
6762.0867515565287249
 20
330.544965989412276
 30
0.0
 40
0.0266399617943892
 50
180.8124207298735087
 51
267.4528484849440133
  0
ARC
  5
3D0F6
  8
0
 10
6762.0772351828418323
 20
331.4983260523998752
 30
0.0
 40
0.0200544275394248
 50
136.5034938605193133
 51
148.5985540698777925
  0
ARC
  5
3D0F7
  8
0
 10
6762.0769166684831362
 20
331.4986282743291213
 30
0.0
 40
0.0196153495378846
 50
107.070430949709106
 51
136.5034938605193133
  0
LINE
  5
3D0F8
  8
0
 10
6762.0364856743572091
 20
331.4744189607508815
 30
0.0
 11
6762.0408291605099294
 21
331.4497951326375187
 31
0.0
  0
LINE
  5
3D0F9
  8
0
 10
6762.0124058076507936
 20
331.4914099838521793
 30
0.0
 11
6762.0124054357511341
 21
330.5391785842522268
 31
0.0
  0
ARC
  5
3D0FA
  8
0
 10
6762.2152102599511636
 20
333.3231571542514189
 30
0.0
 40
2.8663941080991862
 50
267.3910383046762718
 51
270.0000239825766926
  0
ARC
  5
3D0FB
  8
0
 10
6762.0918916116097535
 20
330.5388979397130242
 30
0.0
 40
0.0794866712970264
 50
179.7977046870059894
 51
264.8337686644774749
  0
LINE
  5
3D0FC
  8
0
 10
6759.3215114336508123
 20
328.8310782866523141
 30
0.0
 11
6759.3215114336508123
 21
325.4449586012522104
 31
0.0
  0
ARC
  5
3D0FD
  8
0
 10
6761.6365114597520005
 20
329.6379782866522987
 30
0.0
 40
0.0787
 50
270.0
 51
0.0
  0
ARC
  5
3D0FE
  8
0
 10
6760.0497114336512823
 20
328.8310782866523141
 30
0.0
 40
0.7282
 50
90.0
 51
180.0
  0
ARC
  5
3D0FF
  8
0
 10
6760.0497114336512823
 20
325.4449586012522104
 30
0.0
 40
0.7282
 50
180.0
 51
270.0
  0
LINE
  5
3D100
  8
0
 10
6761.7152114597511172
 20
331.0385801460521975
 30
0.0
 11
6761.7152114597511172
 21
329.7787525869522938
 31
0.0
  0
LINE
  5
3D101
  8
0
 10
6761.7152114597511172
 20
329.7393525869522932
 30
0.0
 11
6761.7152114597511172
 21
329.6379782866522987
 31
0.0
  0
ARC
  5
3D102
  8
0
 10
6761.734911459750947
 20
329.7393525869522932
 30
0.0
 40
0.0197
 50
90.0
 51
180.0
  0
ARC
  5
3D103
  8
0
 10
6762.695511459750378
 20
329.7787525869522938
 30
0.0
 40
0.0197
 50
270.0
 51
0.0000000000032569
  0
ARC
  5
3D104
  8
0
 10
6762.695511459750378
 20
329.7393525869522932
 30
0.0
 40
0.0197
 50
0.0000000000032569
 51
90.0
  0
ARC
  5
3D105
  8
0
 10
6761.734911459750947
 20
329.7787525869522938
 30
0.0
 40
0.0197
 50
179.9999999999967031
 51
270.0
  0
LINE
  5
3D106
  8
0
 10
6764.3805507319511889
 20
329.2443175328522216
 30
0.0
 11
6760.0498721875510455
 21
329.2443175328522216
 31
0.0
  0
LINE
  5
3D107
  8
0
 10
6764.7939507319497352
 20
328.8309175328521974
 30
0.0
 11
6764.7939507319497352
 21
325.4451193551523147
 31
0.0
  0
LINE
  5
3D108
  8
0
 10
6764.9283687124507196
 20
328.8309354794523074
 30
0.0
 11
6764.9283687124507196
 21
325.4451014085522047
 31
0.0
  0
LINE
  5
3D109
  8
0
 10
6764.3805687124513497
 20
329.3787354794523026
 30
0.0
 11
6760.0498542070508847
 21
329.3787354794523026
 31
0.0
  0
ARC
  5
3D10A
  8
0
 10
6764.3805687124513497
 20
328.8309354794523074
 30
0.0
 40
0.5478
 50
0.0
 51
90.0
  0
ARC
  5
3D10B
  8
0
 10
6764.3805507319511889
 20
328.8309175328521974
 30
0.0
 40
0.4134000000000001
 50
0.0
 51
90.0
  0
LINE
  5
3D10C
  8
0
 10
6764.3805507319511889
 20
325.0317193551521768
 30
0.0
 11
6760.0498721875510455
 21
325.0317193551521768
 31
0.0
  0
ARC
  5
3D10D
  8
0
 10
6764.3805507319511889
 20
325.4451193551523147
 30
0.0
 40
0.4134000000000001
 50
270.0
 51
0.0
  0
LINE
  5
3D10E
  8
0
 10
6764.3805687124513497
 20
324.8973014085522095
 30
0.0
 11
6760.0498542070508847
 21
324.8973014085522095
 31
0.0
  0
ARC
  5
3D10F
  8
0
 10
6764.3805687124513497
 20
325.4451014085522047
 30
0.0
 40
0.5478
 50
270.0
 51
0.0
  0
LINE
  5
3D110
  8
0
 10
6759.6364721875497708
 20
328.8309175328521974
 30
0.0
 11
6759.6364721875497708
 21
325.4451193551523147
 31
0.0
  0
LINE
  5
3D111
  8
0
 10
6759.5020542070496958
 20
328.8309354794523074
 30
0.0
 11
6759.5020542070496958
 21
325.4451014085522047
 31
0.0
  0
ARC
  5
3D112
  8
0
 10
6760.0498542070508847
 20
328.8309354794523074
 30
0.0
 40
0.5478
 50
90.0
 51
180.0
  0
ARC
  5
3D113
  8
0
 10
6760.0498721875510455
 20
328.8309175328521974
 30
0.0
 40
0.4134000000000001
 50
90.0
 51
180.0
  0
ARC
  5
3D114
  8
0
 10
6760.0498721875510455
 20
325.4451193551523147
 30
0.0
 40
0.4134000000000001
 50
180.0
 51
270.0
  0
ARC
  5
3D115
  8
0
 10
6760.0498542070508847
 20
325.4451014085522047
 30
0.0
 40
0.5478
 50
180.0
 51
270.0
  0
ENDSEC
  0
EOF
