  0
SECTION
  2
HEADER
  9
$ACADVER
  1
AC1009
  9
$INSBASE
 10
276.9064042411707192
 20
9.2434980617415299
 30
0.0
  9
$EXTMIN
 10
272.8991106287037951
 20
8.1180828071273687
 30
-0.0000000000000058
  9
$EXTMAX
 10
276.9345166831470806
 20
11.24398558512992
 30
0.0000000000000104
  9
$LIMMIN
 10
0.0
 20
0.0
  9
$LIMMAX
 10
11.6929133858000007
 20
8.2677165353999982
  9
$ORTHOMODE
 70
     0
  9
$REGENMODE
 70
     1
  9
$FILLMODE
 70
     1
  9
$QTEXTMODE
 70
     0
  9
$MIRRTEXT
 70
     0
  9
$DRAGMODE
 70
     2
  9
$LTSCALE
 40
0.6431102362
  9
$OSMODE
 70
  4095
  9
$ATTMODE
 70
     1
  9
$TEXTSIZE
 40
0.2
  9
$TRACEWID
 40
0.05
  9
$TEXTSTYLE
  7
STANDARD
  9
$CLAYER
  8
0
  9
$CELTYPE
  6
BYLAYER
  9
$CECOLOR
 62
   256
  9
$DIMSCALE
 40
1.0
  9
$DIMASZ
 40
0.1875
  9
$DIMEXO
 40
0.0625
  9
$DIMDLI
 40
0.4443307087
  9
$DIMRND
 40
0.0
  9
$DIMDLE
 40
0.0
  9
$DIMEXE
 40
0.125
  9
$DIMTP
 40
0.01
  9
$DIMTM
 40
0.01
  9
$DIMTXT
 40
1.0
  9
$DIMCEN
 40
0.1052362205
  9
$DIMTSZ
 40
0.0
  9
$DIMTOL
 70
     1
  9
$DIMLIM
 70
     0
  9
$DIMTIH
 70
     1
  9
$DIMTOH
 70
     1
  9
$DIMSE1
 70
     0
  9
$DIMSE2
 70
     0
  9
$DIMTAD
 70
     0
  9
$DIMZIN
 70
     0
  9
$DIMBLK
  1

  9
$DIMASO
 70
     1
  9
$DIMSHO
 70
     1
  9
$DIMPOST
  1
\X
  9
$DIMAPOST
  1

  9
$DIMALT
 70
     1
  9
$DIMALTD
 70
     2
  9
$DIMALTF
 40
25.3999999999999986
  9
$DIMLFAC
 40
1.0
  9
$DIMTOFL
 70
     0
  9
$DIMTVP
 40
0.0
  9
$DIMTIX
 70
     0
  9
$DIMSOXD
 70
     0
  9
$DIMSAH
 70
     0
  9
$DIMBLK1
  1

  9
$DIMBLK2
  1

  9
$DIMSTYLE
  2
STANDARD
  9
$DIMCLRD
 70
     0
  9
$DIMCLRE
 70
     0
  9
$DIMCLRT
 70
     0
  9
$DIMTFAC
 40
1.0
  9
$DIMGAP
 40
0.09
  9
$LUNITS
 70
     2
  9
$LUPREC
 70
     4
  9
$SKETCHINC
 40
0.1
  9
$FILLETRAD
 40
0.0
  9
$AUNITS
 70
     0
  9
$AUPREC
 70
     0
  9
$MENU
  1
.
  9
$ELEVATION
 40
0.0
  9
$PELEVATION
 40
0.0
  9
$THICKNESS
 40
0.0
  9
$LIMCHECK
 70
     0
  9
$BLIPMODE
 70
     0
  9
$CHAMFERA
 40
0.0
  9
$CHAMFERB
 40
0.0
  9
$SKPOLY
 70
     0
  9
$TDCREATE
 40
2458267.4656481482088566
  9
$TDUPDATE
 40
2460332.6492129629477859
  9
$TDINDWG
 40
0.2213801389
  9
$TDUSRTIMER
 40
0.2213801389
  9
$USRTIMER
 70
     1
  9
$ANGBASE
 50
0.0
  9
$ANGDIR
 70
     0
  9
$PDMODE
 70
     0
  9
$PDSIZE
 40
0.3125
  9
$PLINEWID
 40
0.0
  9
$COORDS
 70
     1
  9
$SPLFRAME
 70
     0
  9
$SPLINETYPE
 70
     6
  9
$SPLINESEGS
 70
     8
  9
$ATTDIA
 70
     1
  9
$ATTREQ
 70
     1
  9
$HANDLING
 70
     1
  9
$HANDSEED
  5
1A58
  9
$SURFTAB1
 70
     6
  9
$SURFTAB2
 70
     6
  9
$SURFTYPE
 70
     6
  9
$SURFU
 70
     6
  9
$SURFV
 70
     6
  9
$UCSNAME
  2

  9
$UCSORG
 10
0.0
 20
0.0
 30
0.0
  9
$UCSXDIR
 10
1.0
 20
0.0
 30
0.0
  9
$UCSYDIR
 10
0.0
 20
1.0
 30
0.0
  9
$PUCSNAME
  2

  9
$PUCSORG
 10
0.0
 20
0.0
 30
0.0
  9
$PUCSXDIR
 10
1.0
 20
0.0
 30
0.0
  9
$PUCSYDIR
 10
0.0
 20
1.0
 30
0.0
  9
$USERI1
 70
     0
  9
$USERI2
 70
     0
  9
$USERI3
 70
     0
  9
$USERI4
 70
     0
  9
$USERI5
 70
     0
  9
$USERR1
 40
0.0
  9
$USERR2
 40
0.0
  9
$USERR3
 40
0.0
  9
$USERR4
 40
0.0
  9
$USERR5
 40
0.0
  9
$WORLDVIEW
 70
     1
  9
$SHADEDGE
 70
     3
  9
$SHADEDIF
 70
    70
  9
$TILEMODE
 70
     1
  9
$MAXACTVP
 70
    64
  9
$PLIMCHECK
 70
     0
  9
$PEXTMIN
 10
1.0000000000000000E+20
 20
1.0000000000000000E+20
 30
1.0000000000000000E+20
  9
$PEXTMAX
 10
-1.0000000000000000E+20
 20
-1.0000000000000000E+20
 30
-1.0000000000000000E+20
  9
$PLIMMIN
 10
0.0
 20
0.0
  9
$PLIMMAX
 10
12.0
 20
9.0
  9
$UNITMODE
 70
     0
  9
$VISRETAIN
 70
     1
  9
$PLINEGEN
 70
     0
  9
$PSLTSCALE
 70
     1
  0
ENDSEC
  0
SECTION
  2
TABLES
  0
TABLE
  2
VPORT
 70
     1
  0
VPORT
  2
*ACTIVE
 70
     0
 10
0.0
 20
0.0
 11
1.0
 21
1.0
 12
172.9314392052417872
 22
-0.1310932966422964
 13
0.0
 23
0.0
 14
1.0
 24
1.0
 15
0.0
 25
0.0
 16
-0.0000000000000142
 26
0.0
 36
62.9619509154070727
 17
101.9853744506835938
 27
9.8121274927709443
 37
0.0
 40
3.1499173960153821
 41
2.4474358974358972
 42
50.0
 43
0.0
 44
0.0
 50
0.0
 51
0.0
 71
     0
 72
   100
 73
     1
 74
     1
 75
     0
 76
     0
 77
     0
 78
     0
  0
ENDTAB
  0
TABLE
  2
LTYPE
 70
     2
  0
LTYPE
  2
CONTINUOUS
 70
     0
  3
Solid line
 72
    65
 73
     0
 40
0.0
  0
LTYPE
  2
PHANTOM2
 70
     0
  3
___ _ _ ___ _ _ ___ _ _ ___ _ _
 72
    65
 73
     6
 40
1.25
 49
0.625
 49
-0.125
 49
0.125
 49
-0.125
 49
0.125
 49
-0.125
  0
ENDTAB
  0
TABLE
  2
LAYER
 70
     2
  0
LAYER
  2
0
 70
     0
 62
   255
  6
CONTINUOUS
  0
LAYER
  2
DEFPOINTS
 70
     0
 62
     7
  6
CONTINUOUS
  0
ENDTAB
  0
TABLE
  2
STYLE
 70
     1
  0
STYLE
  2
STANDARD
 70
     0
 40
0.0
 41
0.8
 50
0.0
 71
     0
 42
0.2
  3
txt
  4

  0
ENDTAB
  0
TABLE
  2
VIEW
 70
     0
  0
ENDTAB
  0
TABLE
  2
UCS
 70
     0
  0
ENDTAB
  0
TABLE
  2
APPID
 70
     9
  0
APPID
  2
ACAD
 70
     0
  0
APPID
  2
ACAD_MLEADERVER
 70
     0
  0
APPID
  2
ACAD_EXEMPT_FROM_CAD_STANDARDS
 70
     0
  0
APPID
  2
ACAD_DSTYLE_DIMJAG
 70
     0
  0
APPID
  2
ACAD_DSTYLE_DIMTALN
 70
     0
  0
APPID
  2
ACAD_NAV_VCDISPLAY
 70
     0
  0
APPID
  2
ACAECLAYERSTANDARD
 70
     0
  0
APPID
  2
ACCMTRANSPARENCY
 70
     0
  0
APPID
  2
ACDBATTR
 70
     0
  0
ENDTAB
  0
TABLE
  2
DIMSTYLE
 70
     1
  0
DIMSTYLE
  2
STANDARD
 70
     0
  3

  4

  5

  6

  7

 40
1.0
 41
0.1875
 42
0.0625
 43
0.38
 44
0.125
 45
0.0
 46
0.0
 47
0.01
 48
0.01
140
0.15625
141
0.09
142
0.0
143
25.3999999999999986
144
1.0
145
0.0
146
1.0
147
0.09
 71
     1
 72
     0
 73
     1
 74
     1
 75
     0
 76
     0
 77
     0
 78
     4
170
     0
171
     2
172
     0
173
     0
174
     0
175
     0
176
     0
177
     0
178
     0
  0
ENDTAB
  0
ENDSEC
  0
SECTION
  2
BLOCKS
  0
BLOCK
  8
0
  2
$MODEL_SPACE
 70
     0
 10
0.0
 20
0.0
 30
0.0
  3
$MODEL_SPACE
  1

  0
ENDBLK
  5
21
  8
0
  0
BLOCK
 67
     1
  8
0
  2
$PAPER_SPACE
 70
     0
 10
0.0
 20
0.0
 30
0.0
  3
$PAPER_SPACE
  1

  0
ENDBLK
  5
1D
 67
     1
  8
0
  0
BLOCK
  8
0
  2
_FILLED
 70
     0
 10
0.0
 20
0.0
 30
0.0
  3
_FILLED
  1

  0
SOLID
  5
1619
  8
0
  6
BYBLOCK
 62
     0
 10
0.0
 20
0.0
 30
0.0
 11
-1.0
 21
0.1666666667
 31
0.0
 12
-1.0
 22
-0.1666666667
 32
0.0
 13
-1.0
 23
-0.1666666667
 33
0.0
  0
ENDBLK
  5
161A
  8
0
  6
BYBLOCK
 62
     0
  0
ENDSEC
  0
SECTION
  2
ENTITIES
  0
ATTDEF
  5
D4F
  8
DEFPOINTS
 10
276.9066567050790013
 20
9.2470542491458403
 30
0.0
 40
0.001
  1
P34602-BAF
  3

  2
MODELNUMBER
 70
     0
1001
ACDBATTR
1070
     0
1070
     1
  0
ATTDEF
  5
D50
  8
DEFPOINTS
 10
276.9066567050790013
 20
9.2453875824791751
 30
0.0
 40
0.001
  1
VICE
  3

  2
TRADENAME
 70
     0
1001
ACDBATTR
1070
     0
1070
     1
  0
ATTDEF
  5
D51
  8
DEFPOINTS
 10
276.9066567050790013
 20
9.2437209158125082
 30
0.0
 40
0.001
  1
HOOK
  3

  2
PRODUCT
 70
     0
1001
ACDBATTR
1070
     0
1070
     1
  0
LINE
  5
18CC
  8
0
 10
272.9417891498707149
 20
11.2434959930413108
 30
0.0
 11
273.3796904220517945
 21
11.2434959930413108
 31
0.0
  0
LINE
  5
18CD
  8
0
 10
276.9064042411707192
 20
10.3684980617415299
 30
0.0
 11
276.9064042411707192
 21
8.1184980617415299
 31
0.0
  0
LINE
  5
18CE
  8
0
 10
276.5731922678705814
 20
9.947755103358336
 30
0.0
 11
276.5731922678705814
 21
8.5392410201247344
 31
0.0
  0
LINE
  5
18CF
  8
0
 10
276.9064042411707192
 20
10.3684980617415299
 30
0.0
 11
276.7002180729587053
 21
10.3684980617415299
 31
0.0
  0
LINE
  5
18D0
  8
0
 10
276.6619205932985892
 20
10.3383534953715497
 30
0.0
 11
276.5787020712949129
 21
9.9940087805601365
 31
0.0
  0
ARC
  5
18D1
  8
0
 10
276.7002180729587053
 20
10.3290980617415293
 30
0.0
 40
0.0394
 50
90.0000000000032543
 51
166.4137128316735073
  0
ARC
  5
18D2
  8
0
 10
276.7700922678707798
 20
9.9477551033583254
 30
0.0
 40
0.1969
 50
166.4137128316762073
 51
179.999999999997101
  0
LINE
  5
18D3
  8
0
 10
276.6619205932985892
 20
10.3383534953715497
 30
0.0
 11
276.6619205932985892
 21
8.1486426281115012
 31
0.0
  0
LINE
  5
18D4
  8
0
 10
273.4104325782005844
 20
8.7434968043415289
 30
0.0
 11
273.9205592711701911
 21
8.7434968043415289
 31
0.0
  0
LINE
  5
18D5
  8
0
 10
273.9956778078770867
 20
8.7434968043415289
 30
0.0
 11
275.8015422955415943
 21
8.7434968043415253
 31
0.0
  0
LINE
  5
18D6
  8
0
 10
276.0062595631997056
 20
8.7434968043415253
 30
0.0
 11
276.5731922678705814
 21
8.7434968043415253
 31
0.0
  0
LINE
  5
18D7
  8
0
 10
276.9064042411707192
 20
8.1184980617415299
 30
0.0
 11
276.7002180729587053
 21
8.1184980617415299
 31
0.0
  0
LINE
  5
18D8
  8
0
 10
276.6619205932985892
 20
8.1486426281115101
 30
0.0
 11
276.5787020712949129
 21
8.4929873429229232
 31
0.0
  0
ARC
  5
18D9
  8
0
 10
276.7002180729587053
 20
8.1578980617415304
 30
0.0
 40
0.0394
 50
193.5862871683264075
 51
269.9999999999968168
  0
ARC
  5
18DA
  8
0
 10
276.7700922678707798
 20
8.5392410201247344
 30
0.0
 40
0.1969
 50
180.0000000000028137
 51
193.5862871683237074
  0
ARC
  5
18DB
  8
0
 10
273.4122968354899967
 20
9.2435011364518935
 30
0.0
 40
0.500007807523418
 50
180.0400090507137065
 51
269.7863746915838874
  0
LINE
  5
18DC
  8
0
 10
272.9122891498706736
 20
11.2139959930413102
 30
0.0
 11
272.9122891498706736
 21
9.8320915219471257
 31
0.0
  0
LINE
  5
18DD
  8
0
 10
272.9122891498706736
 20
9.7522558001385331
 30
0.0
 11
272.9122891498706736
 21
9.2431519861951728
 31
0.0
  0
LINE
  5
18DE
  8
0
 10
273.4353397257381744
 20
11.2204452967137005
 30
0.0
 11
273.600499073218316
 21
11.0552859491920898
 31
0.0
  0
LINE
  5
18DF
  8
0
 10
273.6091394231705749
 20
11.0344262991497093
 30
0.0
 11
273.6091394231705749
 21
9.5781463867413148
 31
0.0
  0
ARC
  5
18E0
  8
0
 10
272.9417891498707149
 20
11.2139959930413102
 30
0.0
 40
0.0295
 50
90.0000000000032543
 51
179.9999999999965041
  0
ARC
  5
18E1
  8
0
 10
273.3796904220517945
 20
11.1647959930413094
 30
0.0
 40
0.0787
 50
44.9999999928043692
 51
90.0
  0
ARC
  5
18E2
  8
0
 10
273.5796394231705904
 20
11.0344262991497093
 30
0.0
 40
0.0295
 50
359.9999999999964757
 51
44.9999999928041632
  0
LINE
  5
18E3
  8
0
 10
273.7469394231707156
 20
9.4403463867413144
 30
0.0
 11
276.5731922678705814
 21
9.4403463867413144
 31
0.0
  0
ARC
  5
18E4
  8
0
 10
273.7469394231707156
 20
9.578146386741313
 30
0.0
 40
0.1378
 50
179.9999999999994031
 51
270.0
  0
LINE
  5
18E5
  8
0
 10
273.7469197846705811
 20
9.3372267483413154
 30
0.0
 11
276.5731922678705814
 21
9.3372267483413154
 31
0.0
  0
LINE
  5
18E6
  8
0
 10
273.5060197846706842
 20
9.5781267483413153
 30
0.0
 11
273.5060197846706842
 21
11.1497652377634502
 31
0.0
  0
ARC
  5
18E7
  8
0
 10
273.7469197846705811
 20
9.5781267483413153
 30
0.0
 40
0.2409
 50
180.0000000000001137
 51
270.0
  0
LINE
  5
18E8
  8
0
 10
273.6091394231705749
 20
9.7894897821413132
 30
0.0
 11
276.5731922678705814
 21
9.7894897821413132
 31
0.0
  0
LINE
  5
18E9
  8
0
 10
273.6091394231705749
 20
9.6826792536413144
 30
0.0
 11
276.5731922678705814
 21
9.6826792536413144
 31
0.0
  0
LINE
  5
18EA
  8
0
 10
272.9148832617697167
 20
9.8249599114968671
 30
0.0
 11
272.926250874643415
 21
9.8114017336137138
 31
0.0
  0
ARC
  5
18EB
  8
0
 10
272.9233891498706726
 20
9.8320915219471257
 30
0.0
 40
0.0111
 50
180.0
 51
219.9775517981726978
  0
ARC
  5
18EC
  8
0
 10
272.9337572280500126
 20
9.8176953019940107
 30
0.0
 40
0.0097956288426786
 50
219.9775517981692019
 51
260.1815951586817732
  0
LINE
  5
18ED
  8
0
 10
272.9320868183705784
 20
9.8080431480413122
 30
0.0
 11
272.9461299540079153
 21
9.8056128314702953
 31
0.0
  0
LINE
  5
18EE
  8
0
 10
272.9509408501061216
 20
9.7931121828405185
 30
0.0
 11
272.9187588451995907
 21
9.7661246866569087
 31
0.0
  0
ARC
  5
18EF
  8
0
 10
272.9303891498706776
 20
9.7522558001385349
 30
0.0
 40
0.0181
 50
129.9828487798839944
 51
180.0000000000055138
  0
LINE
  5
18F0
  8
0
 10
272.9148832617697167
 20
9.8249599114968671
 30
0.0
 11
272.9320190765147913
 21
9.8223364841724532
 31
0.0
  0
ARC
  5
18F1
  8
0
 10
272.9307528027600824
 20
9.8152151966749557
 30
0.0
 40
0.0072329927999439
 50
59.2117983599852096
 51
79.9173189458728501
  0
ARC
  5
18F2
  8
0
 10
272.9252636334691147
 20
9.8060027168850983
 30
0.0
 40
0.0179568336875911
 50
35.7044874399748267
 51
59.2117983599857496
  0
ARC
  5
18F3
  8
0
 10
272.8882322535037019
 20
9.7793885728176715
 30
0.0
 40
0.0635598573437397
 50
24.1095761969751408
 51
35.7044874399748693
  0
ARC
  5
18F4
  8
0
 10
272.8366781540104853
 20
9.7563169681885267
 30
0.0
 40
0.120041041066387
 50
10.9905850554215796
 51
24.1095761969750484
  0
ARC
  5
18F5
  8
0
 10
272.7490632436163764
 20
9.7393012953555882
 30
0.0
 40
0.2092929634284792
 50
0.9986523250074895
 51
10.9905850554215796
  0
LINE
  5
18F6
  8
0
 10
272.9583244165705764
 20
9.7429490391102043
 30
0.0
 11
272.9583244165705764
 21
9.2434574535473644
 31
0.0
  0
LINE
  5
18F7
  8
0
 10
273.4113236571229208
 20
8.7904574535479991
 30
0.0
 11
273.907782988570716
 21
8.7904566212413151
 31
0.0
  0
ARC
  5
18F8
  8
0
 10
273.9077826848629797
 20
8.609299221540418
 30
0.0
 40
0.1811573997011516
 50
77.3360021362896646
 51
89.999903944478632
  0
ARC
  5
18F9
  8
0
 10
273.9159663911054281
 20
8.645719881668251
 30
0.0
 40
0.1438286235089112
 50
64.9188221319225676
 51
77.3360021362896646
  0
ARC
  5
18FA
  8
0
 10
273.954969586175821
 20
8.7290540416012252
 30
0.0
 40
0.051818670582998
 50
50.3398503329592586
 51
64.9188221319195264
  0
ARC
  5
18FB
  8
0
 10
273.9740230900007987
 20
8.7520366037847221
 30
0.0
 40
0.0219651251900706
 50
33.8300072092450392
 51
50.3398503329601112
  0
ARC
  5
18FC
  8
0
 10
273.9855261360805798
 20
8.7597459492991216
 30
0.0
 40
0.0081175955412128
 50
9.2975788675962487
 51
33.8300072092488904
  0
ARC
  5
18FD
  8
0
 10
275.8682123128352828
 20
9.0679659451917232
 30
0.0
 40
1.8996315509691519
 50
189.2975788675960871
 51
189.8347302747976926
  0
ARC
  5
18FE
  8
0
 10
273.920374551732607
 20
8.7628063376306589
 30
0.0
 40
0.0193104168032351
 50
269.843306018893486
 51
320.9709086876756032
  0
ARC
  5
18FF
  8
0
 10
275.459906967663585
 20
7.514822767798587
 30
0.0
 40
1.9625127464162091
 50
139.776344234800888
 51
140.9709086876756032
  0
ARC
  5
1900
  8
0
 10
-444.3743580428169935
 20
-118.0199466780922961
 30
0.0
 40
729.4496371452338508
 50
10.0091894341645204
 51
10.0104727980202597
  0
ARC
  5
1901
  8
0
 10
273.9815085128699934
 20
8.764373992589773
 30
0.0
 40
0.0086652839718099
 50
190.009189434163801
 51
229.9967887691593944
  0
ARC
  5
1902
  8
0
 10
278.0571672713792282
 20
13.6210021415529408
 30
0.0
 40
6.3488412510183458
 50
229.9967887691593944
 51
230.1691077728127084
  0
ARC
  5
1903
  8
0
 10
273.9960957465333991
 20
8.7520931527579151
 30
0.0
 40
0.008606502124343
 50
230.1691077728168864
 51
267.2165762366743138
  0
ARC
  5
1904
  8
0
 10
273.4113244165707215
 20
9.2434574535473644
 30
0.0
 40
0.4530000000000001
 50
180.0
 51
269.9999039444787172
  0
ARC
  5
1906
  8
0
 10
275.9039009293707068
 20
8.2929654625235703
 30
0.0
 40
0.4620127486116
 50
77.1999486862502806
 51
102.8000513137497052
  0
ENDSEC
  0
EOF
