  0
SECTION
  2
HEADER
  9
$ACADVER
  1
AC1009
  9
$INSBASE
 10
272.9365372789313824
 20
11.7341116169553601
 30
0.0
  9
$EXTMIN
 10
271.8078450023145933
 20
7.7391837425060208
 30
-0.0000000000000058
  9
$EXTMAX
 10
274.0661838267935764
 20
11.7392756752269207
 30
0.0000000000000104
  9
$LIMMIN
 10
0.0
 20
0.0
  9
$LIMMAX
 10
11.6929133858000007
 20
8.2677165353999982
  9
$ORTHOMODE
 70
     0
  9
$REGENMODE
 70
     1
  9
$FILLMODE
 70
     1
  9
$QTEXTMODE
 70
     0
  9
$MIRRTEXT
 70
     0
  9
$DRAGMODE
 70
     2
  9
$LTSCALE
 40
0.6431102362
  9
$OSMODE
 70
  4095
  9
$ATTMODE
 70
     1
  9
$TEXTSIZE
 40
0.2
  9
$TRACEWID
 40
0.05
  9
$TEXTSTYLE
  7
STANDARD
  9
$CLAYER
  8
0
  9
$CELTYPE
  6
BYLAYER
  9
$CECOLOR
 62
   256
  9
$DIMSCALE
 40
1.0
  9
$DIMASZ
 40
0.1875
  9
$DIMEXO
 40
0.0625
  9
$DIMDLI
 40
0.4443307087
  9
$DIMRND
 40
0.0
  9
$DIMDLE
 40
0.0
  9
$DIMEXE
 40
0.125
  9
$DIMTP
 40
0.01
  9
$DIMTM
 40
0.01
  9
$DIMTXT
 40
1.0
  9
$DIMCEN
 40
0.1052362205
  9
$DIMTSZ
 40
0.0
  9
$DIMTOL
 70
     1
  9
$DIMLIM
 70
     0
  9
$DIMTIH
 70
     1
  9
$DIMTOH
 70
     1
  9
$DIMSE1
 70
     0
  9
$DIMSE2
 70
     0
  9
$DIMTAD
 70
     0
  9
$DIMZIN
 70
     0
  9
$DIMBLK
  1

  9
$DIMASO
 70
     1
  9
$DIMSHO
 70
     1
  9
$DIMPOST
  1
\X
  9
$DIMAPOST
  1

  9
$DIMALT
 70
     1
  9
$DIMALTD
 70
     2
  9
$DIMALTF
 40
25.3999999999999986
  9
$DIMLFAC
 40
1.0
  9
$DIMTOFL
 70
     0
  9
$DIMTVP
 40
0.0
  9
$DIMTIX
 70
     0
  9
$DIMSOXD
 70
     0
  9
$DIMSAH
 70
     0
  9
$DIMBLK1
  1

  9
$DIMBLK2
  1

  9
$DIMSTYLE
  2
STANDARD
  9
$DIMCLRD
 70
     0
  9
$DIMCLRE
 70
     0
  9
$DIMCLRT
 70
     0
  9
$DIMTFAC
 40
1.0
  9
$DIMGAP
 40
0.09
  9
$LUNITS
 70
     2
  9
$LUPREC
 70
     4
  9
$SKETCHINC
 40
0.1
  9
$FILLETRAD
 40
0.0
  9
$AUNITS
 70
     0
  9
$AUPREC
 70
     0
  9
$MENU
  1
.
  9
$ELEVATION
 40
0.0
  9
$PELEVATION
 40
0.0
  9
$THICKNESS
 40
0.0
  9
$LIMCHECK
 70
     0
  9
$BLIPMODE
 70
     0
  9
$CHAMFERA
 40
0.0
  9
$CHAMFERB
 40
0.0
  9
$SKPOLY
 70
     0
  9
$TDCREATE
 40
2458267.4656481482088566
  9
$TDUPDATE
 40
2460332.5969328698702157
  9
$TDINDWG
 40
0.2209750463
  9
$TDUSRTIMER
 40
0.2209750463
  9
$USRTIMER
 70
     1
  9
$ANGBASE
 50
0.0
  9
$ANGDIR
 70
     0
  9
$PDMODE
 70
     0
  9
$PDSIZE
 40
0.3125
  9
$PLINEWID
 40
0.0
  9
$COORDS
 70
     1
  9
$SPLFRAME
 70
     0
  9
$SPLINETYPE
 70
     6
  9
$SPLINESEGS
 70
     8
  9
$ATTDIA
 70
     1
  9
$ATTREQ
 70
     1
  9
$HANDLING
 70
     1
  9
$HANDSEED
  5
199C
  9
$SURFTAB1
 70
     6
  9
$SURFTAB2
 70
     6
  9
$SURFTYPE
 70
     6
  9
$SURFU
 70
     6
  9
$SURFV
 70
     6
  9
$UCSNAME
  2

  9
$UCSORG
 10
0.0
 20
0.0
 30
0.0
  9
$UCSXDIR
 10
1.0
 20
0.0
 30
0.0
  9
$UCSYDIR
 10
0.0
 20
1.0
 30
0.0
  9
$PUCSNAME
  2

  9
$PUCSORG
 10
0.0
 20
0.0
 30
0.0
  9
$PUCSXDIR
 10
1.0
 20
0.0
 30
0.0
  9
$PUCSYDIR
 10
0.0
 20
1.0
 30
0.0
  9
$USERI1
 70
     0
  9
$USERI2
 70
     0
  9
$USERI3
 70
     0
  9
$USERI4
 70
     0
  9
$USERI5
 70
     0
  9
$USERR1
 40
0.0
  9
$USERR2
 40
0.0
  9
$USERR3
 40
0.0
  9
$USERR4
 40
0.0
  9
$USERR5
 40
0.0
  9
$WORLDVIEW
 70
     1
  9
$SHADEDGE
 70
     3
  9
$SHADEDIF
 70
    70
  9
$TILEMODE
 70
     1
  9
$MAXACTVP
 70
    64
  9
$PLIMCHECK
 70
     0
  9
$PEXTMIN
 10
1.0000000000000000E+20
 20
1.0000000000000000E+20
 30
1.0000000000000000E+20
  9
$PEXTMAX
 10
-1.0000000000000000E+20
 20
-1.0000000000000000E+20
 30
-1.0000000000000000E+20
  9
$PLIMMIN
 10
0.0
 20
0.0
  9
$PLIMMAX
 10
12.0
 20
9.0
  9
$UNITMODE
 70
     0
  9
$VISRETAIN
 70
     1
  9
$PLINEGEN
 70
     0
  9
$PSLTSCALE
 70
     1
  0
ENDSEC
  0
SECTION
  2
TABLES
  0
TABLE
  2
VPORT
 70
     1
  0
VPORT
  2
*ACTIVE
 70
     0
 10
0.0
 20
0.0
 11
1.0
 21
1.0
 12
170.9516399638704911
 22
-0.0728977839044731
 13
0.0
 23
0.0
 14
1.0
 24
1.0
 15
0.0
 25
0.0
 16
-0.0000000000000142
 26
0.0
 36
62.9619509154070727
 17
101.9853744506835938
 27
9.8121274927709443
 37
0.0
 40
4.0318793653364651
 41
2.4474358974358972
 42
50.0
 43
0.0
 44
0.0
 50
0.0
 51
0.0
 71
     0
 72
   100
 73
     1
 74
     1
 75
     0
 76
     0
 77
     0
 78
     0
  0
ENDTAB
  0
TABLE
  2
LTYPE
 70
     2
  0
LTYPE
  2
CONTINUOUS
 70
     0
  3
Solid line
 72
    65
 73
     0
 40
0.0
  0
LTYPE
  2
PHANTOM2
 70
     0
  3
___ _ _ ___ _ _ ___ _ _ ___ _ _
 72
    65
 73
     6
 40
1.25
 49
0.625
 49
-0.125
 49
0.125
 49
-0.125
 49
0.125
 49
-0.125
  0
ENDTAB
  0
TABLE
  2
LAYER
 70
     2
  0
LAYER
  2
0
 70
     0
 62
   255
  6
CONTINUOUS
  0
LAYER
  2
DEFPOINTS
 70
     0
 62
     7
  6
CONTINUOUS
  0
ENDTAB
  0
TABLE
  2
STYLE
 70
     1
  0
STYLE
  2
STANDARD
 70
     0
 40
0.0
 41
0.8
 50
0.0
 71
     0
 42
0.2
  3
txt
  4

  0
ENDTAB
  0
TABLE
  2
VIEW
 70
     0
  0
ENDTAB
  0
TABLE
  2
UCS
 70
     0
  0
ENDTAB
  0
TABLE
  2
APPID
 70
     9
  0
APPID
  2
ACAD
 70
     0
  0
APPID
  2
ACAD_MLEADERVER
 70
     0
  0
APPID
  2
ACAD_EXEMPT_FROM_CAD_STANDARDS
 70
     0
  0
APPID
  2
ACAD_DSTYLE_DIMJAG
 70
     0
  0
APPID
  2
ACAD_DSTYLE_DIMTALN
 70
     0
  0
APPID
  2
ACAD_NAV_VCDISPLAY
 70
     0
  0
APPID
  2
ACAECLAYERSTANDARD
 70
     0
  0
APPID
  2
ACCMTRANSPARENCY
 70
     0
  0
APPID
  2
ACDBATTR
 70
     0
  0
ENDTAB
  0
TABLE
  2
DIMSTYLE
 70
     1
  0
DIMSTYLE
  2
STANDARD
 70
     0
  3

  4

  5

  6

  7

 40
1.0
 41
0.1875
 42
0.0625
 43
0.38
 44
0.125
 45
0.0
 46
0.0
 47
0.01
 48
0.01
140
0.15625
141
0.09
142
0.0
143
25.3999999999999986
144
1.0
145
0.0
146
1.0
147
0.09
 71
     1
 72
     0
 73
     1
 74
     1
 75
     0
 76
     0
 77
     0
 78
     4
170
     0
171
     2
172
     0
173
     0
174
     0
175
     0
176
     0
177
     0
178
     0
  0
ENDTAB
  0
ENDSEC
  0
SECTION
  2
BLOCKS
  0
BLOCK
  8
0
  2
$MODEL_SPACE
 70
     0
 10
0.0
 20
0.0
 30
0.0
  3
$MODEL_SPACE
  1

  0
ENDBLK
  5
21
  8
0
  0
BLOCK
 67
     1
  8
0
  2
$PAPER_SPACE
 70
     0
 10
0.0
 20
0.0
 30
0.0
  3
$PAPER_SPACE
  1

  0
ENDBLK
  5
1D
 67
     1
  8
0
  0
BLOCK
  8
0
  2
_FILLED
 70
     0
 10
0.0
 20
0.0
 30
0.0
  3
_FILLED
  1

  0
SOLID
  5
1619
  8
0
  6
BYBLOCK
 62
     0
 10
0.0
 20
0.0
 30
0.0
 11
-1.0
 21
0.1666666667
 31
0.0
 12
-1.0
 22
-0.1666666667
 32
0.0
 13
-1.0
 23
-0.1666666667
 33
0.0
  0
ENDBLK
  5
161A
  8
0
  6
BYBLOCK
 62
     0
  0
ENDSEC
  0
SECTION
  2
ENTITIES
  0
ATTDEF
  5
D4F
  8
DEFPOINTS
 10
272.933312680568406
 20
11.7379630639770198
 30
0.0
 40
0.001
  1
P34602-BV
  3

  2
MODELNUMBER
 70
     0
1001
ACDBATTR
1070
     0
1070
     1
  0
ATTDEF
  5
D50
  8
DEFPOINTS
 10
272.933312680568406
 20
11.73629639731036
 30
0.0
 40
0.001
  1
VICE
  3

  2
TRADENAME
 70
     0
1001
ACDBATTR
1070
     0
1070
     1
  0
ATTDEF
  5
D51
  8
DEFPOINTS
 10
272.933312680568406
 20
11.7346297306436895
 30
0.0
 40
0.001
  1
HOOK
  3

  2
PRODUCT
 70
     0
1001
ACDBATTR
1070
     0
1070
     1
  0
LINE
  5
1870
  8
0
 10
272.436536021531424
 20
8.2381399539852893
 30
0.0
 11
272.436536021531424
 21
11.4008996436553591
 31
0.0
  0
LINE
  5
1871
  8
0
 10
271.8115372789313824
 20
11.7341116169553601
 30
0.0
 11
274.0615372789313824
 21
11.7341116169553601
 31
0.0
  0
LINE
  5
1872
  8
0
 10
272.232280237314626
 20
11.4008996436553591
 30
0.0
 11
273.6407943205480819
 21
11.4008996436553591
 31
0.0
  0
LINE
  5
1873
  8
0
 10
271.8115372789313824
 20
11.7341116169553601
 30
0.0
 11
271.8115372789313824
 21
11.5279254487434493
 31
0.0
  0
LINE
  5
1874
  8
0
 10
271.8416818453013093
 20
11.4896279690832905
 30
0.0
 11
272.1860265601126798
 21
11.4064094470795894
 31
0.0
  0
ARC
  5
1875
  8
0
 10
271.8509372789313829
 20
11.5279254487434493
 30
0.0
 40
0.0394
 50
180.0000000000025011
 51
256.4137128316730809
  0
ARC
  5
1876
  8
0
 10
272.232280237314626
 20
11.5977996436554598
 30
0.0
 40
0.1969
 50
256.4137128316763778
 51
269.9999999999968168
  0
LINE
  5
1877
  8
0
 10
271.8416818453013093
 20
11.4896279690832905
 30
0.0
 11
274.0313927125613986
 21
11.4896279690832905
 31
0.0
  0
LINE
  5
1878
  8
0
 10
272.5758552494735909
 20
8.4368467988553615
 30
0.0
 11
273.297219308389117
 21
8.4368467988553615
 31
0.0
  0
ARC
  5
1879
  8
0
 10
272.9365403536417034
 20
8.2400042112747673
 30
0.0
 40
0.500007807523418
 50
180.2136253084175053
 51
269.9996476696484251
  0
LINE
  5
187A
  8
0
 10
272.4515321543241271
 20
8.3337314380480692
 30
0.0
 11
272.5396513822662996
 21
8.4218506660415784
 31
0.0
  0
ARC
  5
187B
  8
0
 10
272.4877360215314184
 20
8.2975275708618543
 30
0.0
 40
0.0512
 50
135.0000000166704126
 51
180.0
  0
LINE
  5
187C
  8
0
 10
272.4581347576390158
 20
8.2630588633553614
 30
0.0
 11
273.4149398002236921
 21
8.2630588633553614
 31
0.0
  0
ARC
  5
187D
  8
0
 10
272.4581347576390158
 20
8.2414588633553674
 30
0.0
 40
0.0216
 50
89.9999999999902229
 51
179.8257855495089075
  0
ARC
  5
187E
  8
0
 10
272.5758552494735909
 20
8.3856467988553707
 30
0.0
 40
0.0512
 50
89.9999999999967457
 51
135.0000000166774043
  0
LINE
  5
187F
  8
0
 10
272.7876087213314236
 20
11.4008996436553591
 30
0.0
 11
272.7876087213314236
 21
8.4368467988553615
 31
0.0
  0
LINE
  5
1880
  8
0
 10
272.6807981927314017
 20
11.4008996436553591
 30
0.0
 11
272.6807981927314017
 21
8.4368467988553615
 31
0.0
  0
LINE
  5
1881
  8
0
 10
272.5396569173312855
 20
11.4008996436553591
 30
0.0
 11
272.5396569173312855
 21
8.4218562002605548
 31
0.0
  0
LINE
  5
1882
  8
0
 10
273.4365385363313976
 20
8.2381399539852893
 30
0.0
 11
273.4365385363313976
 21
11.4008996436553591
 31
0.0
  0
LINE
  5
1883
  8
0
 10
274.0615372789313824
 20
11.7341116169553601
 30
0.0
 11
274.0615372789313824
 21
11.5279254487434493
 31
0.0
  0
LINE
  5
1884
  8
0
 10
274.0313927125613986
 20
11.4896279690832905
 30
0.0
 11
273.6870479977500281
 21
11.4064094470795894
 31
0.0
  0
ARC
  5
1885
  8
0
 10
274.0221372789313818
 20
11.5279254487434493
 30
0.0
 40
0.0394
 50
283.5862871683269191
 51
359.9999999999973852
  0
ARC
  5
1886
  8
0
 10
273.6407943205480819
 20
11.5977996436554598
 30
0.0
 40
0.1969
 50
270.0000000000032969
 51
283.5862871683236222
  0
ARC
  5
1887
  8
0
 10
272.9365342042210045
 20
8.2400042112747673
 30
0.0
 40
0.500007807523418
 50
270.0003523303515749
 51
359.7863746915824095
  0
LINE
  5
1888
  8
0
 10
273.4215424035386945
 20
8.3337314380480692
 30
0.0
 11
273.3334231755964083
 21
8.4218506660415784
 31
0.0
  0
ARC
  5
1889
  8
0
 10
273.3853385363314032
 20
8.2975275708618543
 30
0.0
 40
0.0512
 50
0.0
 51
44.9999999833295306
  0
ARC
  5
188A
  8
0
 10
273.4149398002236921
 20
8.2414588633553674
 30
0.0
 40
0.0216
 50
0.174214450491051
 51
90.0000000000097771
  0
ARC
  5
188B
  8
0
 10
273.297219308389117
 20
8.3856467988553707
 30
0.0
 40
0.0512
 50
44.999999983322553
 51
90.0000000000032543
  0
LINE
  5
188C
  8
0
 10
273.0854658365312844
 20
11.4008996436553591
 30
0.0
 11
273.0854658365312844
 21
8.4368467988553615
 31
0.0
  0
LINE
  5
188D
  8
0
 10
273.1922763651314199
 20
11.4008996436553591
 30
0.0
 11
273.1922763651314199
 21
8.4368467988553615
 31
0.0
  0
LINE
  5
188E
  8
0
 10
273.3334176405314224
 20
11.4008996436553591
 30
0.0
 11
273.3334176405314224
 21
8.4218562002605548
 31
0.0
  0
ENDSEC
  0
EOF
