  0
SECTION
  2
HEADER
  9
$ACADVER
  1
AC1009
  9
$INSBASE
 10
6713.1945864518065719
 20
148.7525502999671971
 30
0.0
  9
$EXTMIN
 10
6712.0695864640074433
 20
144.7584390816562916
 30
0.0
  9
$EXTMAX
 10
6719.1394695869357747
 20
148.7574410495421091
 30
0.0
  9
$LIMMIN
 10
0.0
 20
0.0
  9
$LIMMAX
 10
11.6929133858000007
 20
8.2677165353999982
  9
$ORTHOMODE
 70
     0
  9
$REGENMODE
 70
     1
  9
$FILLMODE
 70
     1
  9
$QTEXTMODE
 70
     0
  9
$MIRRTEXT
 70
     0
  9
$DRAGMODE
 70
     2
  9
$LTSCALE
 40
0.6431102362
  9
$OSMODE
 70
  4095
  9
$ATTMODE
 70
     1
  9
$TEXTSIZE
 40
0.2
  9
$TRACEWID
 40
0.05
  9
$TEXTSTYLE
  7
STANDARD
  9
$CLAYER
  8
0
  9
$CELTYPE
  6
BYLAYER
  9
$CECOLOR
 62
   256
  9
$DIMSCALE
 40
1.0
  9
$DIMASZ
 40
0.1875
  9
$DIMEXO
 40
0.0625
  9
$DIMDLI
 40
0.4443307087
  9
$DIMRND
 40
0.0
  9
$DIMDLE
 40
0.0
  9
$DIMEXE
 40
0.125
  9
$DIMTP
 40
0.01
  9
$DIMTM
 40
0.01
  9
$DIMTXT
 40
2.0
  9
$DIMCEN
 40
0.1052362205
  9
$DIMTSZ
 40
0.0
  9
$DIMTOL
 70
     1
  9
$DIMLIM
 70
     0
  9
$DIMTIH
 70
     1
  9
$DIMTOH
 70
     1
  9
$DIMSE1
 70
     0
  9
$DIMSE2
 70
     0
  9
$DIMTAD
 70
     0
  9
$DIMZIN
 70
     0
  9
$DIMBLK
  1

  9
$DIMASO
 70
     1
  9
$DIMSHO
 70
     1
  9
$DIMPOST
  1
\X
  9
$DIMAPOST
  1

  9
$DIMALT
 70
     1
  9
$DIMALTD
 70
     2
  9
$DIMALTF
 40
25.3999999999999986
  9
$DIMLFAC
 40
1.0
  9
$DIMTOFL
 70
     0
  9
$DIMTVP
 40
0.0
  9
$DIMTIX
 70
     0
  9
$DIMSOXD
 70
     0
  9
$DIMSAH
 70
     0
  9
$DIMBLK1
  1

  9
$DIMBLK2
  1

  9
$DIMSTYLE
  2
STANDARD
  9
$DIMCLRD
 70
     0
  9
$DIMCLRE
 70
     0
  9
$DIMCLRT
 70
     0
  9
$DIMTFAC
 40
1.0
  9
$DIMGAP
 40
0.09
  9
$LUNITS
 70
     2
  9
$LUPREC
 70
     4
  9
$SKETCHINC
 40
0.1
  9
$FILLETRAD
 40
0.0
  9
$AUNITS
 70
     0
  9
$AUPREC
 70
     0
  9
$MENU
  1
.
  9
$ELEVATION
 40
0.0
  9
$PELEVATION
 40
0.0
  9
$THICKNESS
 40
0.0
  9
$LIMCHECK
 70
     0
  9
$BLIPMODE
 70
     0
  9
$CHAMFERA
 40
0.0
  9
$CHAMFERB
 40
0.0
  9
$SKPOLY
 70
     0
  9
$TDCREATE
 40
2458060.468368056230247
  9
$TDUPDATE
 40
2460334.6446527778171003
  9
$TDINDWG
 40
0.9582246528
  9
$TDUSRTIMER
 40
0.9582246528
  9
$USRTIMER
 70
     1
  9
$ANGBASE
 50
0.0
  9
$ANGDIR
 70
     0
  9
$PDMODE
 70
     0
  9
$PDSIZE
 40
0.3125
  9
$PLINEWID
 40
0.0
  9
$COORDS
 70
     1
  9
$SPLFRAME
 70
     0
  9
$SPLINETYPE
 70
     6
  9
$SPLINESEGS
 70
     8
  9
$ATTDIA
 70
     1
  9
$ATTREQ
 70
     1
  9
$HANDLING
 70
     1
  9
$HANDSEED
  5
303DB
  9
$SURFTAB1
 70
     6
  9
$SURFTAB2
 70
     6
  9
$SURFTYPE
 70
     6
  9
$SURFU
 70
     6
  9
$SURFV
 70
     6
  9
$UCSNAME
  2

  9
$UCSORG
 10
0.0
 20
0.0
 30
0.0
  9
$UCSXDIR
 10
1.0
 20
0.0
 30
0.0
  9
$UCSYDIR
 10
0.0
 20
1.0
 30
0.0
  9
$PUCSNAME
  2

  9
$PUCSORG
 10
0.0
 20
0.0
 30
0.0
  9
$PUCSXDIR
 10
1.0
 20
0.0
 30
0.0
  9
$PUCSYDIR
 10
0.0
 20
1.0
 30
0.0
  9
$USERI1
 70
     0
  9
$USERI2
 70
     0
  9
$USERI3
 70
     0
  9
$USERI4
 70
     0
  9
$USERI5
 70
     0
  9
$USERR1
 40
0.0
  9
$USERR2
 40
0.0
  9
$USERR3
 40
0.0
  9
$USERR4
 40
0.0
  9
$USERR5
 40
0.0
  9
$WORLDVIEW
 70
     1
  9
$SHADEDGE
 70
     3
  9
$SHADEDIF
 70
    70
  9
$TILEMODE
 70
     1
  9
$MAXACTVP
 70
    64
  9
$PLIMCHECK
 70
     0
  9
$PEXTMIN
 10
1.0000000000000000E+20
 20
1.0000000000000000E+20
 30
1.0000000000000000E+20
  9
$PEXTMAX
 10
-1.0000000000000000E+20
 20
-1.0000000000000000E+20
 30
-1.0000000000000000E+20
  9
$PLIMMIN
 10
0.0
 20
0.0
  9
$PLIMMAX
 10
12.0
 20
9.0
  9
$UNITMODE
 70
     0
  9
$VISRETAIN
 70
     1
  9
$PLINEGEN
 70
     0
  9
$PSLTSCALE
 70
     1
  0
ENDSEC
  0
SECTION
  2
TABLES
  0
TABLE
  2
VPORT
 70
     1
  0
VPORT
  2
*ACTIVE
 70
     0
 10
0.0
 20
0.0
 11
1.0
 21
1.0
 12
2804.239171580159109
 22
14.1783349630601396
 13
0.0
 23
0.0
 14
1.0
 24
1.0
 15
0.0
 25
0.0
 16
0.0
 26
0.0
 36
60.4960186965801583
 17
3911.3653564453120453
 27
132.5796051025390057
 37
0.0
 40
4.0351920309435503
 41
2.8610271903323259
 42
50.0
 43
0.0
 44
0.0
 50
0.0
 51
0.0
 71
     0
 72
   100
 73
     1
 74
     1
 75
     0
 76
     0
 77
     0
 78
     0
  0
ENDTAB
  0
TABLE
  2
LTYPE
 70
     2
  0
LTYPE
  2
CONTINUOUS
 70
     0
  3
Solid line
 72
    65
 73
     0
 40
0.0
  0
LTYPE
  2
PHANTOM2
 70
     0
  3
___ _ _ ___ _ _ ___ _ _ ___ _ _
 72
    65
 73
     6
 40
1.25
 49
0.625
 49
-0.125
 49
0.125
 49
-0.125
 49
0.125
 49
-0.125
  0
ENDTAB
  0
TABLE
  2
LAYER
 70
     2
  0
LAYER
  2
0
 70
     0
 62
   255
  6
CONTINUOUS
  0
LAYER
  2
DEFPOINTS
 70
     0
 62
     7
  6
CONTINUOUS
  0
ENDTAB
  0
TABLE
  2
STYLE
 70
     1
  0
STYLE
  2
STANDARD
 70
     0
 40
0.0
 41
0.8
 50
0.0
 71
     0
 42
0.2
  3
txt
  4

  0
ENDTAB
  0
TABLE
  2
VIEW
 70
     0
  0
ENDTAB
  0
TABLE
  2
UCS
 70
     0
  0
ENDTAB
  0
TABLE
  2
APPID
 70
    11
  0
APPID
  2
ACAD
 70
     0
  0
APPID
  2
ACAD_MLEADERVER
 70
     0
  0
APPID
  2
ACAD_EXEMPT_FROM_CAD_STANDARDS
 70
     0
  0
APPID
  2
ACAD_NAV_VCDISPLAY
 70
     0
  0
APPID
  2
ACAECLAYERSTANDARD
 70
     0
  0
APPID
  2
ACCMTRANSPARENCY
 70
     0
  0
APPID
  2
ACAD_DSTYLE_DIMJAG
 70
     0
  0
APPID
  2
ACAD_DSTYLE_DIMTALN
 70
     0
  0
APPID
  2
ACDBATTR
 70
     0
  0
APPID
  2
ACADANNOTATIVE
 70
     0
  0
APPID
  2
DCO15
 70
     0
  0
ENDTAB
  0
TABLE
  2
DIMSTYLE
 70
     1
  0
DIMSTYLE
  2
STANDARD
 70
     0
  3

  4

  5

  6

  7

 40
1.0
 41
0.1875
 42
0.0625
 43
0.38
 44
0.125
 45
0.0
 46
0.0
 47
0.01
 48
0.01
140
0.15625
141
0.09
142
0.0
143
25.3999999999999986
144
1.0
145
0.0
146
1.0
147
0.09
 71
     1
 72
     0
 73
     1
 74
     1
 75
     0
 76
     0
 77
     0
 78
     4
170
     0
171
     2
172
     0
173
     0
174
     0
175
     0
176
     0
177
     0
178
     0
  0
ENDTAB
  0
ENDSEC
  0
SECTION
  2
BLOCKS
  0
BLOCK
  8
0
  2
$MODEL_SPACE
 70
     0
 10
0.0
 20
0.0
 30
0.0
  3
$MODEL_SPACE
  1

  0
ENDBLK
  5
21
  8
0
  0
BLOCK
 67
     1
  8
0
  2
$PAPER_SPACE
 70
     0
 10
0.0
 20
0.0
 30
0.0
  3
$PAPER_SPACE
  1

  0
ENDBLK
  5
1D
 67
     1
  8
0
  0
BLOCK
  8
0
  2
_FILLED
 70
     0
 10
0.0
 20
0.0
 30
0.0
  3
_FILLED
  1

  0
SOLID
  5
257AF
  8
0
  6
BYBLOCK
 62
     0
 10
0.0
 20
0.0
 30
0.0
 11
-1.0
 21
0.1666666667
 31
0.0
 12
-1.0
 22
-0.1666666667
 32
0.0
 13
-1.0
 23
-0.1666666667
 33
0.0
  0
ENDBLK
  5
257B0
  8
0
  6
BYBLOCK
 62
     0
  0
ENDSEC
  0
SECTION
  2
ENTITIES
  0
ATTDEF
  5
256E4
  8
DEFPOINTS
 10
6713.1847592583244477
 20
148.7564410495419907
 30
0.0
 40
0.001
  1
P34603-BV
  3

  2
MODELNUMBER
 70
     0
1001
ACDBATTR
1070
     0
1070
     1
  0
ATTDEF
  5
256E5
  8
DEFPOINTS
 10
6713.1846334486663181
 20
148.7547742091628038
 30
0.0
 40
0.001
  1
VICE
  3

  2
TRADENAME
 70
     0
1001
ACDBATTR
1070
     0
1070
     1
  0
ATTDEF
  5
256E6
  8
DEFPOINTS
 10
6713.1847592583244477
 20
148.7531077162086035
 30
0.0
 40
0.001
  1
TOILET PAPER HOLDER
  3

  2
PRODUCT
 70
     0
1001
ACDBATTR
1070
     0
1070
     1
  0
LINE
  5
30141
  8
0
 10
6712.0695864640074433
 20
148.5463644356410953
 30
0.0
 11
6712.0695864640074433
 21
148.7525502999671971
 31
0.0
  0
LINE
  5
30142
  8
0
 10
6712.6945864396357138
 20
145.2584390816562916
 30
0.0
 11
6712.6945864396357138
 21
145.7661945393064116
 31
0.0
  0
LINE
  5
30143
  8
0
 10
6712.6945864396357138
 20
145.8426966779504994
 30
0.0
 11
6712.6945864396357138
 21
148.4193383267673028
 31
0.0
  0
LINE
  5
30144
  8
0
 10
6719.1394695869357747
 20
145.2584390816562916
 30
0.0
 11
6719.1394695869357747
 21
146.1108249724672987
 31
0.0
  0
LINE
  5
30145
  8
0
 10
6712.0695864640074433
 20
148.7525502999671971
 30
0.0
 11
6714.3195864396057004
 21
148.7525502999671971
 31
0.0
  0
LINE
  5
30146
  8
0
 10
6712.4903412342182492
 20
148.4193383267673028
 30
0.0
 11
6713.8988316711838706
 21
148.4193383267673028
 31
0.0
  0
LINE
  5
30147
  8
0
 10
6712.44406415382673
 20
148.4248512353103138
 30
0.0
 11
6712.0997310303791892
 21
148.5080669559804107
 31
0.0
  0
ARC
  5
30148
  8
0
 10
6712.4903425917245841
 20
148.6163383274032981
 30
0.0
 40
0.1970000006407169
 50
256.4133329498332046
 51
269.9996051804960757
  0
ARC
  5
30149
  8
0
 10
6712.1089864640071028
 20
148.5463644356410953
 30
0.0
 40
0.0394
 50
179.9999999999967031
 51
256.4137128354947208
  0
LINE
  5
3014A
  8
0
 10
6712.0997310303791892
 20
148.5080669559804107
 30
0.0
 11
6714.289441873233045
 21
148.5080669559804107
 31
0.0
  0
LINE
  5
3014B
  8
0
 10
6713.5292381151366499
 20
145.4552854818672927
 30
0.0
 11
6718.3636193380361874
 21
145.4552854818672927
 31
0.0
  0
LINE
  5
3014C
  8
0
 10
6713.3914381151353155
 20
145.5930854818672913
 30
0.0
 11
6713.3914381151353155
 21
148.4193383267673028
 31
0.0
  0
ARC
  5
3014D
  8
0
 10
6713.5292381151366499
 20
145.5930854818672913
 30
0.0
 40
0.1378
 50
180.0
 51
270.0
  0
LINE
  5
3014E
  8
0
 10
6713.5293184767360799
 20
145.3521658434673043
 30
0.0
 11
6718.3637390082567435
 21
145.3521658434673043
 31
0.0
  0
LINE
  5
3014F
  8
0
 10
6713.2883184767360945
 20
145.5931658434672897
 30
0.0
 11
6713.2883184767360945
 21
148.4193383267673028
 31
0.0
  0
ARC
  5
30150
  8
0
 10
6713.5293184767360799
 20
145.5931658434672897
 30
0.0
 40
0.241
 50
180.0
 51
270.0
  0
LINE
  5
30151
  8
0
 10
6713.6337697483368174
 20
145.4552854818672927
 30
0.0
 11
6713.6337697483368174
 21
148.4193383267673028
 31
0.0
  0
LINE
  5
30152
  8
0
 10
6713.7405802769371803
 20
145.4552854818672927
 30
0.0
 11
6713.7405802769371803
 21
148.4193383267673028
 31
0.0
  0
LINE
  5
30153
  8
0
 10
6714.3195864396057004
 20
148.5463644356410953
 30
0.0
 11
6714.3195864396057004
 21
148.7525502999671971
 31
0.0
  0
LINE
  5
30154
  8
0
 10
6713.9451087497864137
 20
148.4248512353103138
 30
0.0
 11
6714.289441873233045
 21
148.5080669559804107
 31
0.0
  0
ARC
  5
30155
  8
0
 10
6713.8988303118885597
 20
148.6163383274032981
 30
0.0
 40
0.1970000006407169
 50
270.0003948195039243
 51
283.5866670501669091
  0
ARC
  5
30156
  8
0
 10
6714.2801864396060409
 20
148.5463644356410953
 30
0.0
 40
0.0394
 50
283.5862871645052792
 51
0.0000000000032569
  0
LINE
  5
30157
  8
0
 10
6713.1945864396366233
 20
144.7584390816562916
 30
0.0
 11
6713.7024643434688187
 21
144.7584390816562916
 31
0.0
  0
LINE
  5
30158
  8
0
 10
6713.7827792367797883
 20
144.7584390816562916
 30
0.0
 11
6718.6394695869357747
 21
144.7584390816562916
 31
0.0
  0
ARC
  5
30159
  8
0
 10
6713.1945864396366233
 20
145.2584390816562916
 30
0.0
 40
0.5
 50
180.0
 51
270.0
  0
LINE
  5
3015A
  8
0
 10
6712.70874874013316
 20
145.8221787704680992
 30
0.0
 11
6712.696925942946109
 21
145.8362688641348939
 31
0.0
  0
LINE
  5
3015B
  8
0
 10
6712.7140812477346117
 20
145.8191003755036945
 30
0.0
 11
6712.7284420484538714
 21
145.8165696726790088
 31
0.0
  0
ARC
  5
3015C
  8
0
 10
6712.7156431871562745
 20
145.8279638029021044
 30
0.0
 40
0.009
 50
219.9995341729868983
 51
260.005780282188482
  0
LINE
  5
3015D
  8
0
 10
6712.7017295675941568
 20
145.7815144884343113
 30
0.0
 11
6712.732191569407405
 21
145.807078937519293
 31
0.0
  0
ARC
  5
3015E
  8
0
 10
6712.704586439635932
 20
145.8426966779504994
 30
0.0
 40
0.01
 50
180.0
 51
219.9995341729994038
  0
ARC
  5
3015F
  8
0
 10
6712.7145864396370598
 20
145.7661945393064116
 30
0.0
 40
0.02
 50
130.004188045350503
 51
179.9999999999901945
  0
LINE
  5
30160
  8
0
 10
6713.1937244756363725
 20
144.804471163867305
 30
0.0
 11
6713.6992210810503821
 21
144.804471163867305
 31
0.0
  0
LINE
  5
30161
  8
0
 10
6712.7406244756366505
 20
145.2575711638673113
 30
0.0
 11
6712.7406244756366505
 21
145.7586117703513935
 31
0.0
  0
ARC
  5
30162
  8
0
 10
6713.1937244756363725
 20
145.2575711638673113
 30
0.0
 40
0.4531
 50
180.0
 51
270.0
  0
ARC
  5
30163
  8
0
 10
6712.2603054460187195
 20
143.1912706355331864
 30
0.0
 40
2.6807933690688839
 50
80.2495299323761202
 51
80.6264861852074546
  0
ARC
  5
30164
  8
0
 10
6712.7121276779689651
 20
145.8237101132882003
 30
0.0
 40
0.0098749559479621
 50
48.106694704981507
 51
77.1839969135260304
  0
ARC
  5
30165
  8
0
 10
6712.6921191521696528
 20
145.8029349553455063
 30
0.0
 40
0.0387138536836237
 50
23.7154325062473106
 51
46.5945435441334723
  0
ARC
  5
30166
  8
0
 10
6712.6149607024071884
 20
145.7662503710367048
 30
0.0
 40
0.1241372144776176
 50
13.2087454853276807
 51
24.8943346448986489
  0
ARC
  5
30167
  8
0
 10
6712.5599366638080028
 20
145.7527921649223117
 30
0.0
 40
0.1807815066612384
 50
1.8447486811358851
 51
13.3764647533856191
  0
ARC
  5
30168
  8
0
 10
6713.6912402698662845
 20
144.6105518329385973
 30
0.0
 40
0.1940834878472956
 50
79.068987803487417
 51
87.6433040944499595
  0
ARC
  5
30169
  8
0
 10
6713.6994073607347673
 20
144.6551840414101946
 30
0.0
 40
0.1487130406626063
 50
69.2904215572436044
 51
78.8977089745640257
  0
ARC
  5
3016A
  8
0
 10
6713.7263148703423212
 20
144.726356713111187
 30
0.0
 40
0.0726238609432879
 50
57.2326185247504071
 51
69.2904215572436044
  0
ARC
  5
3016B
  8
0
 10
6713.7567704012735703
 20
144.7720415334474922
 30
0.0
 40
0.0177472052836462
 50
20.1882565068789006
 51
60.0855228142886233
  0
LINE
  5
3016C
  8
0
 10
6713.773427285282196
 20
144.7781661975593011
 30
0.0
 11
6713.776351356059422
 21
144.7607786411043946
 31
0.0
  0
LINE
  5
3016D
  8
0
 10
6713.7591253171622157
 20
144.7782870910776012
 30
0.0
 11
6713.7566468750046624
 21
144.7923430349619025
 31
0.0
  0
LINE
  5
3016E
  8
0
 10
6713.776351356059422
 20
144.7607786411043946
 30
0.0
 11
6713.7625455139714177
 21
144.7723631323084987
 31
0.0
  0
ARC
  5
3016F
  8
0
 10
6713.7827792367797883
 20
144.7684390816563109
 30
0.0
 40
0.01
 50
229.9999654220125933
 51
270.0
  0
ARC
  5
30170
  8
0
 10
6713.7689733946899651
 20
144.7800235728603866
 30
0.0
 40
0.01
 50
190.0000000358596139
 51
229.9999654220156913
  0
LINE
  5
30171
  8
0
 10
6713.7177890799657689
 20
144.7655879162894905
 30
0.0
 11
6713.7441393568005878
 21
144.7970100509820099
 31
0.0
  0
ARC
  5
30172
  8
0
 10
6713.7024643434688187
 20
144.7784390816563018
 30
0.0
 40
0.02
 50
270.0
 51
320.017151278137078
  0
ARC
  5
30173
  8
0
 10
6718.6394695869357747
 20
145.2584390816562916
 30
0.0
 40
0.5
 50
270.0
 51
0.0
  0
LINE
  5
30174
  8
0
 10
6719.1099695869370407
 20
146.1403249724673117
 30
0.0
 11
6718.6721926031641487
 21
146.1403249724673117
 31
0.0
  0
ARC
  5
30175
  8
0
 10
6719.1099695869370407
 20
146.1108249724672987
 30
0.0
 40
0.0295
 50
359.9999999999968168
 51
90.0
  0
LINE
  5
30176
  8
0
 10
6718.4512596879912962
 20
145.9521149287222954
 30
0.0
 11
6718.616331167449971
 21
146.1171864081809986
 31
0.0
  0
LINE
  5
30177
  8
0
 10
6718.4426193380377299
 20
145.5342854818673004
 30
0.0
 11
6718.4426193380377299
 21
145.9312552786772983
 31
0.0
  0
ARC
  5
30178
  8
0
 10
6718.3636193380361874
 20
145.5342854818673004
 30
0.0
 40
0.079
 50
270.0
 51
0.0
  0
ARC
  5
30179
  8
0
 10
6718.4721193380373734
 20
145.9312552786772983
 30
0.0
 40
0.0295
 50
135.0000000000092086
 51
179.9999999999967031
  0
ARC
  5
3017A
  8
0
 10
6718.6721926031641487
 20
146.061324972467304
 30
0.0
 40
0.079
 50
90.0
 51
135.0000000000046043
  0
LINE
  5
3017B
  8
0
 10
6718.545739008255623
 20
145.5341658434672922
 30
0.0
 11
6718.545739008255623
 21
146.0465942489871907
 31
0.0
  0
ARC
  5
3017C
  8
0
 10
6718.3637390082567435
 20
145.5341658434672922
 30
0.0
 40
0.182
 50
270.0
 51
0.0
  0
LINE
  5
3017E
  8
0
 10
6712.7157496024701686
 20
145.2584102366384116
 30
0.0
 11
6712.7157496024701686
 21
145.7530491671896016
 31
0.0
  0
LINE
  5
3017F
  8
0
 10
6713.1945496024691238
 20
144.7796102366384048
 30
0.0
 11
6713.6879632477457562
 21
144.7796102366384048
 31
0.0
  0
ARC
  5
30180
  8
0
 10
6713.1945496024691238
 20
145.2584102366384116
 30
0.0
 40
0.4788000000000001
 50
180.0
 51
270.0
  0
LINE
  5
30181
  8
0
 10
6713.7302803771826802
 20
144.8006571499851134
 30
0.0
 11
6713.7148126526371925
 21
144.7827735852673072
 31
0.0
  0
LINE
  5
30182
  8
0
 10
6713.699769822835151
 20
144.7759579242672885
 30
0.0
 11
6713.7024643434688187
 21
144.7584390816562916
 31
0.0
  0
ARC
  5
30183
  8
0
 10
6713.6878142661389575
 20
144.7473747920377036
 30
0.0
 40
0.032235788870817
 50
77.4008259992107952
 51
89.7351996638211062
  0
ARC
  5
30184
  8
0
 10
6713.6915341316398553
 20
144.7641595584611025
 30
0.0
 40
0.0150438218570826
 50
63.2823611706010283
 51
77.2829255738168399
  0
ARC
  5
30185
  8
0
 10
6713.6969378273606708
 20
144.7748953765068904
 30
0.0
 40
0.0030247654651734
 50
20.5657904717575413
 51
63.2823611706032096
  0
ARC
  5
30186
  8
0
 10
6713.6996875906861533
 20
144.7961477467752047
 30
0.0
 40
0.0201899899710141
 50
270.2333615897293271
 51
318.5156492373204742
  0
LINE
  5
30187
  8
0
 10
6712.694588448700415
 20
145.7664780150859087
 30
0.0
 11
6712.7120659854372207
 21
145.7636512066673049
 31
0.0
  0
LINE
  5
30188
  8
0
 10
6712.7360767802865666
 20
145.7934936700249864
 30
0.0
 11
6712.7189267671374182
 21
145.7786600564672881
 31
0.0
  0
ARC
  5
30189
  8
0
 10
6712.7320981603297696
 20
145.7635666966125996
 30
0.0
 40
0.0200323531548426
 50
131.1099530112946923
 51
179.7582868181607125
  0
ARC
  5
3018A
  8
0
 10
6712.6853377953530071
 20
145.7517463381728078
 30
0.0
 40
0.0304397006469055
 50
2.4530271901813321
 51
15.4251607987114099
  0
ARC
  5
3018B
  8
0
 10
6712.7048160798740355
 20
145.7570798980742097
 30
0.0
 40
0.0102445076580792
 50
15.6454380005468501
 51
33.9783565679528934
  0
ARC
  5
3018C
  8
0
 10
6712.7116332014356885
 20
145.7616743588214092
 30
0.0
 40
0.0020236673136336
 50
33.9783565679542434
 51
77.6512726936856126
  0
ENDSEC
  0
EOF
