  0
SECTION
  2
HEADER
  9
$ACADVER
  1
AC1009
  9
$INSBASE
 10
6641.8142487565555712
 20
278.4043246965104004
 30
0.0
  9
$EXTMIN
 10
6637.8201375382450351
 20
277.2793246965104004
 30
0.0
  9
$EXTMAX
 10
6641.8258169158043529
 20
279.5293246965104004
 30
0.0
  9
$LIMMIN
 10
0.0
 20
0.0
  9
$LIMMAX
 10
11.6929133858000007
 20
8.2677165353999982
  9
$ORTHOMODE
 70
     0
  9
$REGENMODE
 70
     1
  9
$FILLMODE
 70
     1
  9
$QTEXTMODE
 70
     0
  9
$MIRRTEXT
 70
     0
  9
$DRAGMODE
 70
     2
  9
$LTSCALE
 40
0.6431102362
  9
$OSMODE
 70
  4095
  9
$ATTMODE
 70
     1
  9
$TEXTSIZE
 40
0.2
  9
$TRACEWID
 40
0.05
  9
$TEXTSTYLE
  7
STANDARD
  9
$CLAYER
  8
0
  9
$CELTYPE
  6
BYLAYER
  9
$CECOLOR
 62
   256
  9
$DIMSCALE
 40
1.0
  9
$DIMASZ
 40
0.1875
  9
$DIMEXO
 40
0.0625
  9
$DIMDLI
 40
0.4443307087
  9
$DIMRND
 40
0.0
  9
$DIMDLE
 40
0.0
  9
$DIMEXE
 40
0.125
  9
$DIMTP
 40
0.01
  9
$DIMTM
 40
0.01
  9
$DIMTXT
 40
2.0
  9
$DIMCEN
 40
0.1052362205
  9
$DIMTSZ
 40
0.0
  9
$DIMTOL
 70
     1
  9
$DIMLIM
 70
     0
  9
$DIMTIH
 70
     1
  9
$DIMTOH
 70
     1
  9
$DIMSE1
 70
     0
  9
$DIMSE2
 70
     0
  9
$DIMTAD
 70
     0
  9
$DIMZIN
 70
     0
  9
$DIMBLK
  1

  9
$DIMASO
 70
     1
  9
$DIMSHO
 70
     1
  9
$DIMPOST
  1
\X
  9
$DIMAPOST
  1

  9
$DIMALT
 70
     1
  9
$DIMALTD
 70
     2
  9
$DIMALTF
 40
25.3999999999999986
  9
$DIMLFAC
 40
1.0
  9
$DIMTOFL
 70
     0
  9
$DIMTVP
 40
0.0
  9
$DIMTIX
 70
     0
  9
$DIMSOXD
 70
     0
  9
$DIMSAH
 70
     0
  9
$DIMBLK1
  1

  9
$DIMBLK2
  1

  9
$DIMSTYLE
  2
STANDARD
  9
$DIMCLRD
 70
     0
  9
$DIMCLRE
 70
     0
  9
$DIMCLRT
 70
     0
  9
$DIMTFAC
 40
1.0
  9
$DIMGAP
 40
0.09
  9
$LUNITS
 70
     2
  9
$LUPREC
 70
     4
  9
$SKETCHINC
 40
0.1
  9
$FILLETRAD
 40
0.0
  9
$AUNITS
 70
     0
  9
$AUPREC
 70
     0
  9
$MENU
  1
.
  9
$ELEVATION
 40
0.0
  9
$PELEVATION
 40
0.0
  9
$THICKNESS
 40
0.0
  9
$LIMCHECK
 70
     0
  9
$BLIPMODE
 70
     0
  9
$CHAMFERA
 40
0.0
  9
$CHAMFERB
 40
0.0
  9
$SKPOLY
 70
     0
  9
$TDCREATE
 40
2458060.468368056230247
  9
$TDUPDATE
 40
2460334.8324884260073304
  9
$TDINDWG
 40
0.9665695602
  9
$TDUSRTIMER
 40
0.9665695602
  9
$USRTIMER
 70
     1
  9
$ANGBASE
 50
0.0
  9
$ANGDIR
 70
     0
  9
$PDMODE
 70
     0
  9
$PDSIZE
 40
0.3125
  9
$PLINEWID
 40
0.0
  9
$COORDS
 70
     1
  9
$SPLFRAME
 70
     0
  9
$SPLINETYPE
 70
     6
  9
$SPLINESEGS
 70
     8
  9
$ATTDIA
 70
     1
  9
$ATTREQ
 70
     1
  9
$HANDLING
 70
     1
  9
$HANDSEED
  5
31076
  9
$SURFTAB1
 70
     6
  9
$SURFTAB2
 70
     6
  9
$SURFTYPE
 70
     6
  9
$SURFU
 70
     6
  9
$SURFV
 70
     6
  9
$UCSNAME
  2

  9
$UCSORG
 10
0.0
 20
0.0
 30
0.0
  9
$UCSXDIR
 10
1.0
 20
0.0
 30
0.0
  9
$UCSYDIR
 10
0.0
 20
1.0
 30
0.0
  9
$PUCSNAME
  2

  9
$PUCSORG
 10
0.0
 20
0.0
 30
0.0
  9
$PUCSXDIR
 10
1.0
 20
0.0
 30
0.0
  9
$PUCSYDIR
 10
0.0
 20
1.0
 30
0.0
  9
$USERI1
 70
     0
  9
$USERI2
 70
     0
  9
$USERI3
 70
     0
  9
$USERI4
 70
     0
  9
$USERI5
 70
     0
  9
$USERR1
 40
0.0
  9
$USERR2
 40
0.0
  9
$USERR3
 40
0.0
  9
$USERR4
 40
0.0
  9
$USERR5
 40
0.0
  9
$WORLDVIEW
 70
     1
  9
$SHADEDGE
 70
     3
  9
$SHADEDIF
 70
    70
  9
$TILEMODE
 70
     1
  9
$MAXACTVP
 70
    64
  9
$PLIMCHECK
 70
     0
  9
$PEXTMIN
 10
1.0000000000000000E+20
 20
1.0000000000000000E+20
 30
1.0000000000000000E+20
  9
$PEXTMAX
 10
-1.0000000000000000E+20
 20
-1.0000000000000000E+20
 30
-1.0000000000000000E+20
  9
$PLIMMIN
 10
0.0
 20
0.0
  9
$PLIMMAX
 10
12.0
 20
9.0
  9
$UNITMODE
 70
     0
  9
$VISRETAIN
 70
     1
  9
$PLINEGEN
 70
     0
  9
$PSLTSCALE
 70
     1
  0
ENDSEC
  0
SECTION
  2
TABLES
  0
TABLE
  2
VPORT
 70
     1
  0
VPORT
  2
*ACTIVE
 70
     0
 10
0.0
 20
0.0
 11
1.0
 21
1.0
 12
2728.4576207817108298
 22
145.8247195939713095
 13
0.0
 23
0.0
 14
1.0
 24
1.0
 15
0.0
 25
0.0
 16
0.0
 26
0.0
 36
60.4960186965801583
 17
3911.3653564453120453
 27
132.5796051025390057
 37
0.0
 40
2.27036199095022
 41
2.8610271903323259
 42
50.0
 43
0.0
 44
0.0
 50
0.0
 51
0.0
 71
     0
 72
   100
 73
     1
 74
     1
 75
     0
 76
     0
 77
     0
 78
     0
  0
ENDTAB
  0
TABLE
  2
LTYPE
 70
     2
  0
LTYPE
  2
CONTINUOUS
 70
     0
  3
Solid line
 72
    65
 73
     0
 40
0.0
  0
LTYPE
  2
PHANTOM2
 70
     0
  3
___ _ _ ___ _ _ ___ _ _ ___ _ _
 72
    65
 73
     6
 40
1.25
 49
0.625
 49
-0.125
 49
0.125
 49
-0.125
 49
0.125
 49
-0.125
  0
ENDTAB
  0
TABLE
  2
LAYER
 70
     2
  0
LAYER
  2
0
 70
     0
 62
   255
  6
CONTINUOUS
  0
LAYER
  2
DEFPOINTS
 70
     0
 62
     7
  6
CONTINUOUS
  0
ENDTAB
  0
TABLE
  2
STYLE
 70
     1
  0
STYLE
  2
STANDARD
 70
     0
 40
0.0
 41
0.8
 50
0.0
 71
     0
 42
0.2
  3
txt
  4

  0
ENDTAB
  0
TABLE
  2
VIEW
 70
     0
  0
ENDTAB
  0
TABLE
  2
UCS
 70
     0
  0
ENDTAB
  0
TABLE
  2
APPID
 70
    11
  0
APPID
  2
ACAD
 70
     0
  0
APPID
  2
ACAD_MLEADERVER
 70
     0
  0
APPID
  2
ACAD_EXEMPT_FROM_CAD_STANDARDS
 70
     0
  0
APPID
  2
ACAD_NAV_VCDISPLAY
 70
     0
  0
APPID
  2
ACAECLAYERSTANDARD
 70
     0
  0
APPID
  2
ACCMTRANSPARENCY
 70
     0
  0
APPID
  2
ACAD_DSTYLE_DIMJAG
 70
     0
  0
APPID
  2
ACAD_DSTYLE_DIMTALN
 70
     0
  0
APPID
  2
ACDBATTR
 70
     0
  0
APPID
  2
ACADANNOTATIVE
 70
     0
  0
APPID
  2
DCO15
 70
     0
  0
ENDTAB
  0
TABLE
  2
DIMSTYLE
 70
     1
  0
DIMSTYLE
  2
STANDARD
 70
     0
  3

  4

  5

  6

  7

 40
1.0
 41
0.1875
 42
0.0625
 43
0.38
 44
0.125
 45
0.0
 46
0.0
 47
0.01
 48
0.01
140
0.15625
141
0.09
142
0.0
143
25.3999999999999986
144
1.0
145
0.0
146
1.0
147
0.09
 71
     1
 72
     0
 73
     1
 74
     1
 75
     0
 76
     0
 77
     0
 78
     4
170
     0
171
     2
172
     0
173
     0
174
     0
175
     0
176
     0
177
     0
178
     0
  0
ENDTAB
  0
ENDSEC
  0
SECTION
  2
BLOCKS
  0
BLOCK
  8
0
  2
$MODEL_SPACE
 70
     0
 10
0.0
 20
0.0
 30
0.0
  3
$MODEL_SPACE
  1

  0
ENDBLK
  5
21
  8
0
  0
BLOCK
 67
     1
  8
0
  2
$PAPER_SPACE
 70
     0
 10
0.0
 20
0.0
 30
0.0
  3
$PAPER_SPACE
  1

  0
ENDBLK
  5
1D
 67
     1
  8
0
  0
BLOCK
  8
0
  2
_FILLED
 70
     0
 10
0.0
 20
0.0
 30
0.0
  3
_FILLED
  1

  0
SOLID
  5
26C2A
  8
0
  6
BYBLOCK
 62
     0
 10
0.0
 20
0.0
 30
0.0
 11
-1.0
 21
0.1666666667
 31
0.0
 12
-1.0
 22
-0.1666666667
 32
0.0
 13
-1.0
 23
-0.1666666667
 33
0.0
  0
ENDBLK
  5
26C2B
  8
0
  6
BYBLOCK
 62
     0
  0
ENDSEC
  0
SECTION
  2
ENTITIES
  0
ATTDEF
  5
26A5B
  8
DEFPOINTS
 10
6641.8151502491336942
 20
278.4074810905480035
 30
0.0
 40
0.001
  1
P34603-CP
  3

  2
MODELNUMBER
 70
     0
1001
ACDBATTR
1070
     0
1070
     1
  0
ATTDEF
  5
26A5C
  8
DEFPOINTS
 10
6641.8150244394782931
 20
278.4058142501688167
 30
0.0
 40
0.001
  1
VICE
  3

  2
TRADENAME
 70
     0
1001
ACDBATTR
1070
     0
1070
     1
  0
ATTDEF
  5
26A5D
  8
DEFPOINTS
 10
6641.8151502491336942
 20
278.4041477572146164
 30
0.0
 40
0.001
  1
TOILET PAPER HOLDER
  3

  2
PRODUCT
 70
     0
1001
ACDBATTR
1070
     0
1070
     1
  0
LINE
  5
30D01
  8
0
 10
6641.6080625884433175
 20
279.5293246965104004
 30
0.0
 11
6641.8142487565555712
 21
279.5293246965104004
 31
0.0
  0
LINE
  5
30D02
  8
0
 10
6641.4810367833551936
 20
279.108569826299572
 30
0.0
 11
6641.4810367833551936
 21
277.7000795667211719
 31
0.0
  0
LINE
  5
30D03
  8
0
 10
6641.5697651087848499
 20
279.4991801301483747
 30
0.0
 11
6641.4865493850638813
 21
279.1548469944896169
 31
0.0
  0
ARC
  5
30D04
  8
0
 10
6641.6080625884433175
 20
279.4899246965103998
 30
0.0
 40
0.0394
 50
90.0
 51
166.4137128197529876
  0
LINE
  5
30D05
  8
0
 10
6641.8142487565555712
 20
279.5293246965104004
 30
0.0
 11
6641.8142487565555712
 21
277.2793246965104004
 31
0.0
  0
ARC
  5
30D06
  8
0
 10
6641.67803678335531
 20
279.108569826299572
 30
0.0
 40
0.197
 50
166.4137128197529876
 51
180.0000000000032117
  0
LINE
  5
30D07
  8
0
 10
6641.5697651087848499
 20
279.4991801301483747
 30
0.0
 11
6641.5697651087848499
 21
277.309469262872426
 31
0.0
  0
ARC
  5
30D08
  8
0
 10
6638.3201375382141123
 20
278.4043246965104004
 30
0.0
 40
0.4999999999700009
 50
90.0
 51
270.0
  0
LINE
  5
30D09
  8
0
 10
6638.3201375382141123
 20
278.904324696480387
 30
0.0
 11
6641.4810367833551936
 21
278.904324696480387
 31
0.0
  0
LINE
  5
30D0A
  8
0
 10
6638.3201375382141123
 20
277.9043246965404137
 30
0.0
 11
6641.4810367833551936
 21
277.9043246965404137
 31
0.0
  0
LINE
  5
30D0B
  8
0
 10
6639.202023429055771
 20
278.8732246964804062
 30
0.0
 11
6639.202023429055771
 21
277.9354246965403945
 31
0.0
  0
ARC
  5
30D0C
  8
0
 10
6639.1709234290547101
 20
278.8732246964804062
 30
0.0
 40
0.0311
 50
359.9999999999869829
 51
90.0
  0
ARC
  5
30D0D
  8
0
 10
6639.1709234290547101
 20
277.9354246965403945
 30
0.0
 40
0.0311
 50
270.0
 51
359.9999999999869829
  0
LINE
  5
30D0E
  8
0
 10
6641.6080625884433175
 20
277.2793246965104004
 30
0.0
 11
6641.8142487565555712
 21
277.2793246965104004
 31
0.0
  0
LINE
  5
30D0F
  8
0
 10
6641.5697651087848499
 20
277.309469262872426
 30
0.0
 11
6641.4865493850638813
 21
277.6538023985312975
 31
0.0
  0
ARC
  5
30D10
  8
0
 10
6641.6080625884433175
 20
277.3187246965104009
 30
0.0
 40
0.0394
 50
193.5862871802468987
 51
270.0
  0
ARC
  5
30D11
  8
0
 10
6641.67803678335531
 20
277.7000795667211719
 30
0.0
 40
0.197
 50
179.9999999999967031
 51
193.5862871802468987
  0
LINE
  5
30D12
  8
0
 10
6639.202023429055771
 20
278.5259733467214005
 30
0.0
 11
6641.4810367833551936
 21
278.5259733467214005
 31
0.0
  0
LINE
  5
30D13
  8
0
 10
6639.202023429055771
 20
278.6487640750103765
 30
0.0
 11
6641.4810367833551936
 21
278.6487640750103765
 31
0.0
  0
LINE
  5
30D14
  8
0
 10
6639.202023429055771
 20
278.7650145535104116
 30
0.0
 11
6641.4810367833551936
 21
278.7650145535104116
 31
0.0
  0
LINE
  5
30D15
  8
0
 10
6639.1975260071831144
 20
278.8893340986103908
 30
0.0
 11
6641.4810367833551936
 21
278.8893340986103908
 31
0.0
  0
LINE
  5
30D16
  8
0
 10
6639.202023429055771
 20
278.2826760462995139
 30
0.0
 11
6641.4810367833551936
 21
278.2826760462995139
 31
0.0
  0
LINE
  5
30D17
  8
0
 10
6639.202023429055771
 20
278.1598853180104243
 30
0.0
 11
6641.4810367833551936
 21
278.1598853180104243
 31
0.0
  0
LINE
  5
30D18
  8
0
 10
6639.202023429055771
 20
278.0436348395105028
 30
0.0
 11
6641.4810367833551936
 21
278.0436348395105028
 31
0.0
  0
LINE
  5
30D19
  8
0
 10
6639.1975260071831144
 20
277.9193152944104099
 30
0.0
 11
6641.4810367833551936
 21
277.9193152944104099
 31
0.0
  0
ENDSEC
  0
EOF
