  0
SECTION
  2
HEADER
  9
$ACADVER
  1
AC1009
  9
$INSBASE
 10
6564.0736938021136666
 20
290.1111344894179069
 30
0.0
  9
$EXTMIN
 10
6558.2711898793595537
 20
286.8611344894177932
 30
0.0
  9
$EXTMAX
 10
6564.0857635125457819
 20
293.3611344894177932
 30
0.0
  9
$LIMMIN
 10
0.0
 20
0.0
  9
$LIMMAX
 10
11.6929133858000007
 20
8.2677165353999982
  9
$ORTHOMODE
 70
     0
  9
$REGENMODE
 70
     1
  9
$FILLMODE
 70
     1
  9
$QTEXTMODE
 70
     0
  9
$MIRRTEXT
 70
     0
  9
$DRAGMODE
 70
     2
  9
$LTSCALE
 40
0.6431102362
  9
$OSMODE
 70
  4095
  9
$ATTMODE
 70
     1
  9
$TEXTSIZE
 40
0.2
  9
$TRACEWID
 40
0.05
  9
$TEXTSTYLE
  7
STANDARD
  9
$CLAYER
  8
0
  9
$CELTYPE
  6
BYLAYER
  9
$CECOLOR
 62
   256
  9
$DIMSCALE
 40
1.0
  9
$DIMASZ
 40
0.1875
  9
$DIMEXO
 40
0.0625
  9
$DIMDLI
 40
0.4443307087
  9
$DIMRND
 40
0.0
  9
$DIMDLE
 40
0.0
  9
$DIMEXE
 40
0.125
  9
$DIMTP
 40
0.01
  9
$DIMTM
 40
0.01
  9
$DIMTXT
 40
2.0
  9
$DIMCEN
 40
0.1052362205
  9
$DIMTSZ
 40
0.0
  9
$DIMTOL
 70
     1
  9
$DIMLIM
 70
     0
  9
$DIMTIH
 70
     1
  9
$DIMTOH
 70
     1
  9
$DIMSE1
 70
     0
  9
$DIMSE2
 70
     0
  9
$DIMTAD
 70
     0
  9
$DIMZIN
 70
     0
  9
$DIMBLK
  1

  9
$DIMASO
 70
     1
  9
$DIMSHO
 70
     1
  9
$DIMPOST
  1
\X
  9
$DIMAPOST
  1

  9
$DIMALT
 70
     1
  9
$DIMALTD
 70
     2
  9
$DIMALTF
 40
25.3999999999999986
  9
$DIMLFAC
 40
1.0
  9
$DIMTOFL
 70
     0
  9
$DIMTVP
 40
0.0
  9
$DIMTIX
 70
     0
  9
$DIMSOXD
 70
     0
  9
$DIMSAH
 70
     0
  9
$DIMBLK1
  1

  9
$DIMBLK2
  1

  9
$DIMSTYLE
  2
STANDARD
  9
$DIMCLRD
 70
     0
  9
$DIMCLRE
 70
     0
  9
$DIMCLRT
 70
     0
  9
$DIMTFAC
 40
1.0
  9
$DIMGAP
 40
0.09
  9
$LUNITS
 70
     2
  9
$LUPREC
 70
     4
  9
$SKETCHINC
 40
0.1
  9
$FILLETRAD
 40
0.0
  9
$AUNITS
 70
     0
  9
$AUPREC
 70
     0
  9
$MENU
  1
.
  9
$ELEVATION
 40
0.0
  9
$PELEVATION
 40
0.0
  9
$THICKNESS
 40
0.0
  9
$LIMCHECK
 70
     0
  9
$BLIPMODE
 70
     0
  9
$CHAMFERA
 40
0.0
  9
$CHAMFERB
 40
0.0
  9
$SKPOLY
 70
     0
  9
$TDCREATE
 40
2458060.468368056230247
  9
$TDUPDATE
 40
2460734.5020023151300848
  9
$TDINDWG
 40
0.8297987269
  9
$TDUSRTIMER
 40
0.8297987269
  9
$USRTIMER
 70
     1
  9
$ANGBASE
 50
0.0
  9
$ANGDIR
 70
     0
  9
$PDMODE
 70
     0
  9
$PDSIZE
 40
0.3125
  9
$PLINEWID
 40
0.0
  9
$COORDS
 70
     2
  9
$SPLFRAME
 70
     0
  9
$SPLINETYPE
 70
     6
  9
$SPLINESEGS
 70
     8
  9
$ATTDIA
 70
     1
  9
$ATTREQ
 70
     1
  9
$HANDLING
 70
     1
  9
$HANDSEED
  5
2EAD2
  9
$SURFTAB1
 70
     6
  9
$SURFTAB2
 70
     6
  9
$SURFTYPE
 70
     6
  9
$SURFU
 70
     6
  9
$SURFV
 70
     6
  9
$UCSNAME
  2

  9
$UCSORG
 10
0.0
 20
0.0
 30
0.0
  9
$UCSXDIR
 10
1.0
 20
0.0
 30
0.0
  9
$UCSYDIR
 10
0.0
 20
1.0
 30
0.0
  9
$PUCSNAME
  2

  9
$PUCSORG
 10
0.0
 20
0.0
 30
0.0
  9
$PUCSXDIR
 10
1.0
 20
0.0
 30
0.0
  9
$PUCSYDIR
 10
0.0
 20
1.0
 30
0.0
  9
$USERI1
 70
     0
  9
$USERI2
 70
     0
  9
$USERI3
 70
     0
  9
$USERI4
 70
     0
  9
$USERI5
 70
     0
  9
$USERR1
 40
0.0
  9
$USERR2
 40
0.0
  9
$USERR3
 40
0.0
  9
$USERR4
 40
0.0
  9
$USERR5
 40
0.0
  9
$WORLDVIEW
 70
     1
  9
$SHADEDGE
 70
     3
  9
$SHADEDIF
 70
    70
  9
$TILEMODE
 70
     1
  9
$MAXACTVP
 70
    64
  9
$PLIMCHECK
 70
     0
  9
$PEXTMIN
 10
1.0000000000000000E+20
 20
1.0000000000000000E+20
 30
1.0000000000000000E+20
  9
$PEXTMAX
 10
-1.0000000000000000E+20
 20
-1.0000000000000000E+20
 30
-1.0000000000000000E+20
  9
$PLIMMIN
 10
0.0
 20
0.0
  9
$PLIMMAX
 10
12.0
 20
9.0
  9
$UNITMODE
 70
     0
  9
$VISRETAIN
 70
     1
  9
$PLINEGEN
 70
     0
  9
$PSLTSCALE
 70
     1
  0
ENDSEC
  0
SECTION
  2
TABLES
  0
TABLE
  2
VPORT
 70
     1
  0
VPORT
  2
*ACTIVE
 70
     0
 10
0.0
 20
0.0
 11
1.0
 21
1.0
 12
2649.8131202506410773
 22
157.5315293868787023
 13
0.0
 23
0.0
 14
1.0
 24
1.0
 15
0.0
 25
0.0
 16
0.0
 26
0.0
 36
60.4960186965801583
 17
3911.3653564453120453
 27
132.5796051025390057
 37
0.0
 40
6.5505181347151051
 41
2.4370946822308679
 42
50.0
 43
0.0
 44
0.0
 50
0.0
 51
0.0
 71
     0
 72
   100
 73
     1
 74
     1
 75
     0
 76
     0
 77
     0
 78
     0
  0
ENDTAB
  0
TABLE
  2
LTYPE
 70
     2
  0
LTYPE
  2
CONTINUOUS
 70
     0
  3
Solid line
 72
    65
 73
     0
 40
0.0
  0
LTYPE
  2
PHANTOM2
 70
     0
  3
___ _ _ ___ _ _ ___ _ _ ___ _ _
 72
    65
 73
     6
 40
1.25
 49
0.625
 49
-0.125
 49
0.125
 49
-0.125
 49
0.125
 49
-0.125
  0
ENDTAB
  0
TABLE
  2
LAYER
 70
     2
  0
LAYER
  2
0
 70
     0
 62
   255
  6
CONTINUOUS
  0
LAYER
  2
DEFPOINTS
 70
     0
 62
     7
  6
CONTINUOUS
  0
ENDTAB
  0
TABLE
  2
STYLE
 70
     1
  0
STYLE
  2
STANDARD
 70
     0
 40
0.0
 41
0.8
 50
0.0
 71
     0
 42
0.2
  3
txt
  4

  0
ENDTAB
  0
TABLE
  2
VIEW
 70
     0
  0
ENDTAB
  0
TABLE
  2
UCS
 70
     0
  0
ENDTAB
  0
TABLE
  2
APPID
 70
    11
  0
APPID
  2
ACAD
 70
     0
  0
APPID
  2
ACAD_MLEADERVER
 70
     0
  0
APPID
  2
ACAD_EXEMPT_FROM_CAD_STANDARDS
 70
     0
  0
APPID
  2
ACAD_NAV_VCDISPLAY
 70
     0
  0
APPID
  2
ACAECLAYERSTANDARD
 70
     0
  0
APPID
  2
ACCMTRANSPARENCY
 70
     0
  0
APPID
  2
ACAD_DSTYLE_DIMJAG
 70
     0
  0
APPID
  2
ACAD_DSTYLE_DIMTALN
 70
     0
  0
APPID
  2
ACDBATTR
 70
     0
  0
APPID
  2
ACADANNOTATIVE
 70
     0
  0
APPID
  2
DCO15
 70
     0
  0
ENDTAB
  0
TABLE
  2
DIMSTYLE
 70
     1
  0
DIMSTYLE
  2
STANDARD
 70
     0
  3

  4

  5

  6

  7

 40
1.0
 41
0.1875
 42
0.0625
 43
0.38
 44
0.125
 45
0.0
 46
0.0
 47
0.01
 48
0.01
140
0.15625
141
0.09
142
0.0
143
25.3999999999999986
144
1.0
145
0.0
146
1.0
147
0.09
 71
     1
 72
     0
 73
     1
 74
     1
 75
     0
 76
     0
 77
     0
 78
     4
170
     0
171
     2
172
     0
173
     0
174
     0
175
     0
176
     0
177
     0
178
     0
  0
ENDTAB
  0
ENDSEC
  0
SECTION
  2
BLOCKS
  0
BLOCK
  8
0
  2
$MODEL_SPACE
 70
     0
 10
0.0
 20
0.0
 30
0.0
  3
$MODEL_SPACE
  1

  0
ENDBLK
  5
21
  8
0
  0
BLOCK
 67
     1
  8
0
  2
$PAPER_SPACE
 70
     0
 10
0.0
 20
0.0
 30
0.0
  3
$PAPER_SPACE
  1

  0
ENDBLK
  5
1D
 67
     1
  8
0
  0
BLOCK
  8
0
  2
_FILLED
 70
     0
 10
0.0
 20
0.0
 30
0.0
  3
_FILLED
  1

  0
SOLID
  5
26C2A
  8
0
  6
BYBLOCK
 62
     0
 10
0.0
 20
0.0
 30
0.0
 11
-1.0
 21
0.1666666667
 31
0.0
 12
-1.0
 22
-0.1666666667
 32
0.0
 13
-1.0
 23
-0.1666666667
 33
0.0
  0
ENDBLK
  5
26C2B
  8
0
  6
BYBLOCK
 62
     0
  0
ENDSEC
  0
SECTION
  2
ENTITIES
  0
ATTDEF
  5
26A5B
  8
DEFPOINTS
 10
6564.0750968458769421
 20
290.1149007071115875
 30
0.0
 40
0.001
  1
P34604-BAF
  3

  2
MODELNUMBER
 70
     0
1001
ACDBATTR
1070
     0
1070
     1
  0
ATTDEF
  5
26A5C
  8
DEFPOINTS
 10
6564.074971036219722
 20
290.1132338667324007
 30
0.0
 40
0.001
  1
VICE
  3

  2
TRADENAME
 70
     0
1001
ACDBATTR
1070
     0
1070
     1
  0
ATTDEF
  5
26A5D
  8
DEFPOINTS
 10
6564.0750968458769421
 20
290.111567373778314
 30
0.0
 40
0.001
  1
VALVE TRIM
  3

  2
PRODUCT
 70
     0
1001
ACDBATTR
1070
     0
1070
     1
  0
LINE
  5
2E8FF
  8
0
 10
6560.3459930147146224
 20
290.1111344894179069
 30
0.0
 11
6558.8811898651147203
 21
290.1111344894179069
 31
0.0
  0
LINE
  5
2E900
  8
0
 10
6564.0736938021136666
 20
293.3611344894177932
 30
0.0
 11
6564.0736938021136666
 21
286.8611344894177932
 31
0.0
  0
LINE
  5
2E901
  8
0
 10
6563.1736938021149399
 20
293.3021344894178242
 30
0.0
 11
6563.1736938021149399
 21
286.9201344894178192
 31
0.0
  0
LINE
  5
2E902
  8
0
 10
6563.3952696135747829
 20
293.3464898284772175
 30
0.0
 11
6563.1883384630564251
 21
293.1395586779585187
 31
0.0
  0
LINE
  5
2E903
  8
0
 10
6563.2326938021151364
 20
293.3611344894177932
 30
0.0
 11
6564.0736938021136666
 21
293.3611344894177932
 31
0.0
  0
ARC
  5
2E904
  8
0
 10
6563.4306249526325701
 20
293.3111344894177819
 30
0.0
 40
0.05
 50
90.0
 51
135.0000000000069065
  0
ARC
  5
2E905
  8
0
 10
6563.2236938021151218
 20
293.1042033388991968
 30
0.0
 40
0.05
 50
135.0000000000046043
 51
180.0000000000065086
  0
ARC
  5
2E906
  8
0
 10
6563.2326938021151364
 20
293.3021344894178242
 30
0.0
 40
0.059
 50
90.0
 51
180.0
  0
LINE
  5
2E907
  8
0
 10
6563.4306249526325701
 20
293.3611344894177932
 30
0.0
 11
6563.4306249526325701
 21
286.8611344894177932
 31
0.0
  0
LINE
  5
2E908
  8
0
 10
6560.9865441958154406
 20
291.1741344894177814
 30
0.0
 11
6560.4934204207802395
 21
291.1741344894177814
 31
0.0
  0
LINE
  5
2E909
  8
0
 10
6561.0469930147146442
 20
291.1741344894177814
 30
0.0
 11
6563.0351702796151585
 21
291.1741344894177814
 31
0.0
  0
LINE
  5
2E90A
  8
0
 10
6561.0269930147151172
 20
291.1541344894179133
 30
0.0
 11
6561.0269930147151172
 21
289.0681344894177869
 31
0.0
  0
LINE
  5
2E90B
  8
0
 10
6560.9965441958147494
 20
291.1641344894177905
 30
0.0
 11
6560.9965441958147494
 21
289.0581344894179097
 31
0.0
  0
ARC
  5
2E90C
  8
0
 10
6561.0469930147146442
 20
291.1541344894179133
 30
0.0
 40
0.02
 50
90.0
 51
180.0000000000032117
  0
LINE
  5
2E90D
  8
0
 10
6560.3459930147146224
 20
290.7609055725197891
 30
0.0
 11
6560.3459930147146224
 21
289.4613634063157974
 31
0.0
  0
ARC
  5
2E90E
  8
0
 10
6560.3409930147154228
 20
290.1061344894177978
 30
0.0
 40
0.005
 50
0.0
 51
90.0
  0
LINE
  5
2E90F
  8
0
 10
6560.4556820651378075
 20
291.1460559961009835
 30
0.0
 11
6560.3516021187733713
 21
290.7991228412726059
 31
0.0
  0
LINE
  5
2E910
  8
0
 10
6561.0094194217763288
 20
290.7935608965365191
 30
0.0
 11
6560.9965441958147494
 21
290.7806856704601728
 31
0.0
  0
ARC
  5
2E911
  8
0
 10
6560.966993014714717
 20
290.8359873032177916
 30
0.0
 40
0.06
 50
315.0000002563847943
 51
359.9999999999968168
  0
ARC
  5
2E912
  8
0
 10
6560.9865441958154406
 20
291.1641344894177905
 30
0.0
 40
0.01
 50
0.0000000000065138
 51
90.0
  0
ARC
  5
2E913
  8
0
 10
6560.4934204207802395
 20
291.1347344894177809
 30
0.0
 40
0.0394
 50
90.0
 51
163.3007557783734001
  0
ARC
  5
2E914
  8
0
 10
6560.4789930147153427
 20
290.7609055725197891
 30
0.0
 40
0.133
 50
163.3007557783828076
 51
179.9999999999967031
  0
LINE
  5
2E915
  8
0
 10
6559.3501697720139418
 20
290.6111344894179069
 30
0.0
 11
6560.3459930147146224
 21
290.6111344894179069
 31
0.0
  0
LINE
  5
2E916
  8
0
 10
6560.4556820651378075
 20
291.1460559961009835
 30
0.0
 11
6560.4556820651378075
 21
289.0762129827347167
 31
0.0
  0
LINE
  5
2E917
  8
0
 10
6558.7713001013162284
 20
290.6030242532178249
 30
0.0
 11
6558.9295393775200864
 21
290.6030242532178249
 31
0.0
  0
LINE
  5
2E918
  8
0
 10
6559.1591584526149745
 20
290.6030242532178249
 30
0.0
 11
6559.2994860728986168
 21
290.6030242532178249
 31
0.0
  0
LINE
  5
2E919
  8
0
 10
6558.2793001013151297
 20
290.11102425321792
 30
0.0
 11
6558.2793001013151297
 21
289.9525503480900284
 31
0.0
  0
LINE
  5
2E91A
  8
0
 10
6558.2793001013151297
 20
289.7229039858474948
 30
0.0
 11
6558.2793001013151297
 21
289.5830363286415832
 31
0.0
  0
LINE
  5
2E91B
  8
0
 10
6558.3387155371137851
 20
290.1111088174134807
 30
0.0
 11
6558.3387155371137851
 21
289.7182699425861756
 31
0.0
  0
ARC
  5
2E91C
  8
0
 10
6559.2974696520832367
 20
290.5829216861732789
 30
0.0
 40
0.0202034441293404
 50
3.9494788586686669
 51
84.2720125598805936
  0
ARC
  5
2E91D
  8
0
 10
6559.1581478092793986
 20
290.8922985028743824
 30
0.0
 40
0.3488605432814325
 50
271.793274865874082
 51
281.9408934871732981
  0
ARC
  5
2E91E
  8
0
 10
6559.1622253012901638
 20
290.8681092204367928
 30
0.0
 40
0.3243526256329874
 50
282.1202893337613773
 51
291.8413157382415193
  0
ARC
  5
2E91F
  8
0
 10
6559.1930148476330942
 20
290.7912905590097239
 30
0.0
 40
0.2415933185581325
 50
291.8413157382415193
 51
301.2829553452202731
  0
ARC
  5
2E920
  8
0
 10
6559.2947419154952513
 20
290.6222834252341727
 30
0.0
 40
0.0443418941911155
 50
302.3453630428459746
 51
319.1185817237338256
  0
ARC
  5
2E921
  8
0
 10
6559.9161422247143491
 20
290.2564725101353815
 30
0.0
 40
0.67751308549148
 50
149.4039899890501886
 51
150.1919132135249129
  0
ARC
  5
2E922
  8
0
 10
6559.3501697720139418
 20
290.5911344894178114
 30
0.0
 40
0.02
 50
90.0
 51
149.4039899890474032
  0
ARC
  5
2E923
  8
0
 10
6558.7713001013162284
 20
290.11102425321792
 30
0.0
 40
0.492
 50
90.0
 51
180.0
  0
LINE
  5
2E924
  8
0
 10
6558.7592876239159523
 20
290.2130367306177732
 30
0.0
 11
6560.3359930147153136
 21
290.2130367306177732
 31
0.0
  0
LINE
  5
2E925
  8
0
 10
6558.6692876239148973
 20
290.1230367306179119
 30
0.0
 11
6558.6692876239148973
 21
288.9191693278796151
 31
0.0
  0
ARC
  5
2E926
  8
0
 10
6558.7592876239159523
 20
290.1230367306179119
 30
0.0
 40
0.09
 50
90.0
 51
179.9999999999967031
  0
ARC
  5
2E927
  8
0
 10
6560.3359930147153136
 20
290.2230367306178209
 30
0.0
 40
0.01
 50
270.0
 51
359.9999999999902229
  0
ARC
  5
2E928
  8
0
 10
6560.3359930147153136
 20
290.1211344894177842
 30
0.0
 40
0.01
 50
270.0
 51
359.9999999999869829
  0
LINE
  5
2E929
  8
0
 10
6558.7711898651150477
 20
290.0011344894177796
 30
0.0
 11
6558.7711898651150477
 21
288.7748516178925797
 31
0.0
  0
ARC
  5
2E92A
  8
0
 10
6558.8811898651147203
 20
290.0011344894177796
 30
0.0
 40
0.11
 50
90.0
 51
180.0
  0
LINE
  5
2E92B
  8
0
 10
6560.3358680560895664
 20
289.8553196718156073
 30
0.0
 11
6559.2755336040081602
 21
289.8685704998891879
 31
0.0
  0
LINE
  5
2E92C
  8
0
 10
6559.2014145317116345
 20
289.8384105402142268
 30
0.0
 11
6559.04391381431833
 21
289.6809098228214907
 31
0.0
  0
LINE
  5
2E92D
  8
0
 10
6559.0137538546423457
 20
289.6067907505247945
 30
0.0
 11
6559.0155262709013186
 21
288.5080007747587274
 31
0.0
  0
LINE
  5
2E92E
  8
0
 10
6559.1185205738138393
 20
289.5636594689934213
 30
0.0
 11
6559.1185205738138393
 21
288.4049931337858084
 31
0.0
  0
ARC
  5
2E92F
  8
0
 10
6559.1135205738137302
 20
288.4049931337858084
 30
0.0
 40
0.005
 50
224.9985316090264007
 51
0.0
  0
LINE
  5
2E930
  8
0
 10
6560.3359930147153136
 20
289.7638037808177955
 30
0.0
 11
6559.3186648857399632
 21
289.7638037808177955
 31
0.0
  0
ARC
  5
2E931
  8
0
 10
6560.3359930147153136
 20
289.7738037808177864
 30
0.0
 40
0.01
 50
270.0
 51
359.9999999999935199
  0
ARC
  5
2E932
  8
0
 10
6560.3359930147153136
 20
289.8653188910521976
 30
0.0
 40
0.01
 50
269.2840211846952911
 51
0.0000000000097707
  0
LINE
  5
2E933
  8
0
 10
6559.2458328873153732
 20
289.7336357793175239
 30
0.0
 11
6559.1486885753902243
 21
289.6364914674931015
 31
0.0
  0
ARC
  5
2E934
  8
0
 10
6559.3186648857399632
 20
289.6608037808177869
 30
0.0
 40
0.103
 50
90.0
 51
134.9999999705312064
  0
ARC
  5
2E935
  8
0
 10
6559.2215205738139048
 20
289.5636594689934213
 30
0.0
 40
0.103
 50
134.9999999705312064
 51
180.0
  0
ARC
  5
2E936
  8
0
 10
6559.2742465301744232
 20
289.7655785417518928
 30
0.0
 40
0.103
 50
89.2840211846952911
 51
135.0000000000069065
  0
ARC
  5
2E937
  8
0
 10
6559.1167458127811187
 20
289.6080778243593272
 30
0.0
 40
0.103
 50
135.0000000000046043
 51
180.7159788147152142
  0
LINE
  5
2E938
  8
0
 10
6558.7287449473342349
 20
288.775626651298694
 30
0.0
 11
6559.2572772450212142
 21
288.2470943536114873
 31
0.0
  0
ARC
  5
2E939
  8
0
 10
6558.8717898651148062
 20
288.7748516178925797
 30
0.0
 40
0.1006
 50
179.9999999999967031
 51
224.9999999999976978
  0
ARC
  5
2E93A
  8
0
 10
6558.872287623916236
 20
288.9191693278796151
 30
0.0
 40
0.203
 50
180.0
 51
224.9999999999953957
  0
LINE
  5
2E93B
  8
0
 10
6559.1099849493011789
 20
288.401457690490588
 30
0.0
 11
6558.8013560001190854
 21
288.7101024593214902
 31
0.0
  0
ARC
  5
2E93C
  8
0
 10
6559.0105262774040966
 20
288.507992709459586
 30
0.0
 40
0.005
 50
224.9985316090264007
 51
0.092421559355733
  0
ARC
  5
2E93D
  8
0
 10
6558.8741898651151132
 20
288.7829325912026093
 30
0.0
 40
0.103
 50
179.9999999999967031
 51
224.9985316090287029
  0
LINE
  5
2E93E
  8
0
 10
6559.2711896729160799
 20
288.2135067815052025
 30
0.0
 11
6559.2711896729160799
 21
287.0959582486793238
 31
0.0
  0
ARC
  5
2E93F
  8
0
 10
6559.2236896729145883
 20
288.2135067815052025
 30
0.0
 40
0.0475
 50
0.0
 51
44.9999999999953886
  0
ARC
  5
2E940
  8
0
 10
6558.009569814526003
 20
289.7212834207945775
 30
0.0
 40
0.3291595171790095
 50
339.3459246658998723
 51
359.4754458370659904
  0
ARC
  5
2E941
  8
0
 10
6558.0268358974453804
 20
289.7152385218881818
 30
0.0
 40
0.3108712923692102
 50
335.2210767507000924
 51
339.265971754006614
  0
ARC
  5
2E942
  8
0
 10
6558.2074773872582227
 20
289.6278315554902747
 30
0.0
 40
0.1102877077490607
 50
318.1729315186526037
 51
337.1173481099622222
  0
ARC
  5
2E943
  8
0
 10
6558.3890971330338289
 20
289.3682271824621921
 30
0.0
 40
0.2109606194053301
 50
118.1223814559054972
 51
120.8444528366392063
  0
LINE
  5
2E944
  8
0
 10
6558.2711898793595537
 20
289.5321787845942936
 30
0.0
 11
6558.2711898793595537
 21
287.0959584266336151
 31
0.0
  0
ARC
  5
2E945
  8
0
 10
6558.2911898793608998
 20
289.5321787845941799
 30
0.0
 40
0.02
 50
120.844452836767104
 51
179.9999999999575948
  0
ARC
  5
2E946
  8
0
 10
6558.2993628733947844
 20
289.5848033115956923
 30
0.0
 40
0.0201404332688427
 50
185.0332082182042086
 51
265.888259360737095
  0
LINE
  5
2E947
  8
0
 10
6558.4056201156681709
 20
286.9615281902179049
 30
0.0
 11
6559.136759614561015
 21
286.9615281902179049
 31
0.0
  0
LINE
  5
2E948
  8
0
 10
6558.3777601084739217
 20
286.9730681830549202
 30
0.0
 11
6558.282729872164964
 21
287.0680984194706866
 31
0.0
  0
LINE
  5
2E949
  8
0
 10
6559.1646196217570832
 20
286.9730681830549202
 30
0.0
 11
6559.2596496801088506
 21
287.0680982415163953
 31
0.0
  0
ARC
  5
2E94A
  8
0
 10
6558.4056201156681709
 20
287.0009281902179055
 30
0.0
 40
0.0394
 50
224.9999999674222124
 51
270.0
  0
ARC
  5
2E94B
  8
0
 10
6559.136759614561015
 20
287.0009281902179055
 30
0.0
 40
0.0394
 50
270.0
 51
315.0000000325732117
  0
ARC
  5
2E94C
  8
0
 10
6559.2317896729136919
 20
287.0959582486793238
 30
0.0
 40
0.0394
 50
315.0000000325732117
 51
0.0000000000065138
  0
ARC
  5
2E94D
  8
0
 10
6558.3105898793601227
 20
287.0959584266336151
 30
0.0
 40
0.0394
 50
179.9999999999934914
 51
224.9999999674267883
  0
LINE
  5
2E94E
  8
0
 10
6563.3952696135747829
 20
286.8757791503584826
 30
0.0
 11
6563.1883384630564251
 21
287.0827103008771815
 31
0.0
  0
LINE
  5
2E94F
  8
0
 10
6563.2326938021151364
 20
286.8611344894177932
 30
0.0
 11
6564.0736938021136666
 21
286.8611344894177932
 31
0.0
  0
ARC
  5
2E950
  8
0
 10
6563.4306249526325701
 20
286.9111344894178046
 30
0.0
 40
0.05
 50
224.9999999999930935
 51
270.0
  0
ARC
  5
2E951
  8
0
 10
6563.2236938021151218
 20
287.1180656399365034
 30
0.0
 40
0.05
 50
179.9999999999934914
 51
224.9999999999953957
  0
ARC
  5
2E952
  8
0
 10
6563.2326938021151364
 20
286.9201344894178192
 30
0.0
 40
0.059
 50
180.0
 51
270.0
  0
LINE
  5
2E953
  8
0
 10
6560.9865441958154406
 20
289.0481344894179188
 30
0.0
 11
6560.4934204207802395
 21
289.0481344894179188
 31
0.0
  0
LINE
  5
2E954
  8
0
 10
6561.0469930147146442
 20
289.0481344894179188
 30
0.0
 11
6563.0351702796151585
 21
289.0481344894179188
 31
0.0
  0
ARC
  5
2E955
  8
0
 10
6561.0469930147146442
 20
289.0681344894177869
 30
0.0
 40
0.02
 50
179.9999999999934914
 51
270.0
  0
LINE
  5
2E956
  8
0
 10
6560.4556820651378075
 20
289.0762129827347167
 30
0.0
 11
6560.3516021187733713
 21
289.4231461375629806
 31
0.0
  0
LINE
  5
2E957
  8
0
 10
6561.0094194217763288
 20
289.4287080822991811
 30
0.0
 11
6560.9965441958147494
 21
289.4415833083755274
 31
0.0
  0
ARC
  5
2E958
  8
0
 10
6560.966993014714717
 20
289.3862816756179086
 30
0.0
 40
0.06
 50
0.0000000000032569
 51
44.9999997436152199
  0
ARC
  5
2E959
  8
0
 10
6560.9865441958154406
 20
289.0581344894179097
 30
0.0
 40
0.01
 50
270.0
 51
359.9999999999935199
  0
ARC
  5
2E95A
  8
0
 10
6560.4934204207802395
 20
289.0875344894179193
 30
0.0
 40
0.0394
 50
196.6992442216264863
 51
270.0
  0
ARC
  5
2E95B
  8
0
 10
6560.4789930147153427
 20
289.4613634063157974
 30
0.0
 40
0.133
 50
180.0000000000032117
 51
196.6992442216171924
  0
LINE
  5
2E95C
  8
0
 10
6561.8751202088860737
 20
288.2641344894178133
 30
0.0
 11
6562.105267395343617
 21
288.2641344894178133
 31
0.0
  0
LINE
  5
2E95D
  8
0
 10
6561.8539070054321201
 20
288.2553476928360965
 30
0.0
 11
6561.7924805986613137
 21
288.1939212859649047
 31
0.0
  0
LINE
  5
2E95E
  8
0
 10
6561.783693802113703
 20
288.1727080825465919
 30
0.0
 11
6561.783693802113703
 21
287.4495608962889719
 31
0.0
  0
LINE
  5
2E95F
  8
0
 10
6562.1776938021157548
 20
288.1917080825465973
 30
0.0
 11
6562.1776938021157548
 21
287.4305608962890233
 31
0.0
  0
ARC
  5
2E960
  8
0
 10
6562.1476938021141905
 20
287.4305608962890233
 30
0.0
 40
0.03
 50
315.0000000675183855
 51
0.0
  0
LINE
  5
2E961
  8
0
 10
6562.1264805988048465
 20
288.2553476928284226
 30
0.0
 11
6562.16890700557542
 21
288.2129212859571794
 31
0.0
  0
ARC
  5
2E962
  8
0
 10
6562.105267395343617
 20
288.2341344894177837
 30
0.0
 40
0.03
 50
44.9999999324815931
 51
90.0
  0
ARC
  5
2E963
  8
0
 10
6561.8751202088860737
 20
288.2341344894177837
 30
0.0
 40
0.03
 50
90.0
 51
135.0000000465981884
  0
ARC
  5
2E964
  8
0
 10
6561.8136938021152673
 20
288.1727080825465919
 30
0.0
 40
0.03
 50
135.0000000466534971
 51
179.9999999999870113
  0
ARC
  5
2E965
  8
0
 10
6562.1476938021141905
 20
288.1917080825465973
 30
0.0
 40
0.03
 50
0.0000000000130276
 51
44.9999999324769888
  0
LINE
  5
2E966
  8
0
 10
6562.6136938021163587
 20
288.1111344894179069
 30
0.0
 11
6562.2076938021145907
 21
288.1111344894179069
 31
0.0
  0
LINE
  5
2E967
  8
0
 10
6562.6536938021163223
 20
288.1111344894179069
 30
0.0
 11
6562.9876938021152455
 21
288.1111344894179069
 31
0.0
  0
LINE
  5
2E968
  8
0
 10
6562.6336938021158858
 20
288.0911344894178114
 30
0.0
 11
6562.6336938021158858
 21
287.5311344894178092
 31
0.0
  0
ARC
  5
2E969
  8
0
 10
6562.6536938021163223
 20
288.0911344894178114
 30
0.0
 40
0.02
 50
90.0
 51
179.9999999999934914
  0
ARC
  5
2E96A
  8
0
 10
6562.6136938021163587
 20
288.0911344894178114
 30
0.0
 40
0.02
 50
0.0000000000065138
 51
90.0
  0
ARC
  5
2E96B
  8
0
 10
6562.2076938021145907
 20
288.1411344894178228
 30
0.0
 40
0.03
 50
180.0
 51
270.0
  0
LINE
  5
2E96C
  8
0
 10
6562.9876938021152455
 20
288.1566535714919155
 30
0.0
 11
6562.9876938021152455
 21
287.4656154073438188
 31
0.0
  0
LINE
  5
2E96D
  8
0
 10
6563.1736938021149399
 20
288.1893811315177913
 30
0.0
 11
6563.017170229911244
 21
288.186649002346428
 31
0.0
  0
ARC
  5
2E96E
  8
0
 10
6563.0176938021149908
 20
288.1566535714919155
 30
0.0
 40
0.03
 50
91.0000000204060768
 51
180.0
  0
LINE
  5
2E96F
  8
0
 10
6562.1264805988048465
 20
288.2553476928284226
 30
0.0
 11
6562.1264805988048465
 21
287.3669212860073117
 31
0.0
  0
LINE
  5
2E970
  8
0
 10
6562.16890700557542
 20
288.2129212859571794
 30
0.0
 11
6562.16890700557542
 21
287.4093476928783844
 31
0.0
  0
LINE
  5
2E971
  8
0
 10
6561.8539070054321201
 20
288.2553476928360965
 30
0.0
 11
6561.8539070054321201
 21
287.3669212859994104
 31
0.0
  0
LINE
  5
2E972
  8
0
 10
6561.7924805986613137
 20
288.1939212859650183
 30
0.0
 11
6561.7924805986613137
 21
287.4283476928706023
 31
0.0
  0
LINE
  5
2E973
  8
0
 10
6561.8751202088860737
 20
287.3581344894178073
 30
0.0
 11
6562.105267395343617
 21
287.3581344894178073
 31
0.0
  0
LINE
  5
2E974
  8
0
 10
6561.8539070054321201
 20
287.3669212859995241
 30
0.0
 11
6561.7924805986613137
 21
287.4283476928706023
 31
0.0
  0
LINE
  5
2E975
  8
0
 10
6562.1264805988048465
 20
287.3669212860073117
 30
0.0
 11
6562.16890700557542
 21
287.4093476928783844
 31
0.0
  0
ARC
  5
2E976
  8
0
 10
6562.105267395343617
 20
287.3881344894177801
 30
0.0
 40
0.03
 50
270.0
 51
315.0000000675183855
  0
ARC
  5
2E977
  8
0
 10
6561.8751202088860737
 20
287.3881344894177801
 30
0.0
 40
0.03
 50
224.9999999534018116
 51
270.0
  0
ARC
  5
2E978
  8
0
 10
6561.8136938021152673
 20
287.4495608962889719
 30
0.0
 40
0.03
 50
180.0000000000129887
 51
224.9999999533465029
  0
LINE
  5
2E979
  8
0
 10
6562.6136938021163587
 20
287.5111344894178842
 30
0.0
 11
6562.2076938021145907
 21
287.5111344894178842
 31
0.0
  0
LINE
  5
2E97A
  8
0
 10
6562.6536938021163223
 20
287.5111344894178842
 30
0.0
 11
6562.9876938021152455
 21
287.5111344894178842
 31
0.0
  0
ARC
  5
2E97B
  8
0
 10
6562.6536938021163223
 20
287.5311344894178092
 30
0.0
 40
0.02
 50
180.0000000000065086
 51
270.0
  0
ARC
  5
2E97C
  8
0
 10
6562.6136938021163587
 20
287.5311344894178092
 30
0.0
 40
0.02
 50
270.0
 51
359.9999999999935199
  0
ARC
  5
2E97D
  8
0
 10
6562.2076938021145907
 20
287.4811344894179115
 30
0.0
 40
0.03
 50
90.0
 51
180.0
  0
LINE
  5
2E97E
  8
0
 10
6563.1736938021149399
 20
287.4328878473177724
 30
0.0
 11
6563.017170229911244
 21
287.4356199764893063
 31
0.0
  0
ARC
  5
2E97F
  8
0
 10
6563.0176938021149908
 20
287.4656154073438188
 30
0.0
 40
0.03
 50
180.0
 51
268.9999999795940084
  0
LINE
  5
2E980
  8
0
 10
6558.3777601084893831
 20
286.973068183039004
 30
0.0
 11
6559.1646196217407123
 21
286.973068183039004
 31
0.0
  0
LINE
  5
2E981
  8
0
 10
6558.2827377388102832
 20
287.0680905528270728
 30
0.0
 11
6559.2596419914198123
 21
287.0680905528270728
 31
0.0
  0
ARC
  5
2E982
  8
0
 10
6563.0351702796151585
 20
290.1111344894172817
 30
0.0
 40
1.0630000000005051
 50
82.5122765618218637
 51
90.0
  0
ARC
  5
2E983
  8
0
 10
6563.0351702796151585
 20
290.1111344894184185
 30
0.0
 40
1.0630000000005051
 50
270.0
 51
277.4877234381781932
  0
LINE
  5
2E984
  8
0
 10
6559.1690648561243506
 20
290.5436088174134852
 30
0.0
 11
6558.7712155371145855
 21
290.5436088174134852
 31
0.0
  0
ARC
  5
2E985
  8
0
 10
6558.7712155371145855
 20
290.1111088174134807
 30
0.0
 40
0.4325000000000001
 50
90.0
 51
180.0
  0
ARC
  5
2E986
  8
0
 10
6559.044348915066621
 20
291.0735634562333871
 30
0.0
 40
0.4843432372672234
 50
256.2879962063731796
 51
283.7120037936268204
  0
ARC
  5
2E987
  8
0
 10
6557.8086446250481458
 20
289.8377271669687048
 30
0.0
 40
0.4844594309771634
 50
346.2896882449057898
 51
13.7103117550942297
  0
LINE
  5
2E988
  8
0
 10
6559.03118940841523
 20
288.4802572702645875
 30
0.0
 11
6559.03118940841523
 21
288.4731821902178126
 31
0.0
  0
LINE
  5
2E989
  8
0
 10
6558.9827248544543181
 20
288.5287243084139845
 30
0.0
 11
6558.9847978250163578
 21
288.5195737736178216
 31
0.0
  0
ENDSEC
  0
EOF
